PrimaNota.ru - самый крупный в мире бесплатный архив песенных текстов, аккордов, табулатур и нот


Deus - You Cant Deny What You Liked As A Child - таба, видео

Регистрация Запомнить меня
Войти через:  Facebook Google Twitter Vk Yandex Mail.ru

Deus - You Cant Deny What You Liked As A Child - таба, видео

Печатать
Просмотров: 100
Уроки эстрадного вокала в Санкт-Петербурге
You Can't Deny What You Liked As A Child  -  dEUS

trans. by Avi & Stewart

So you'd understand how to play it correctly I put the whole lyrics 
with the chords...

 Cadd9                                         G
She's a half-breed, She was brought up for the game
Cadd9                                          G 
But she looks like, But she looks like she can win 
Dsus2                  Cadd9 Dsus2            Cadd9
Like to see behind her smile, To see what is movin'
Dsus2                   Cadd9 Dsus2           Cadd9
Like to stay with her a while, To see what is movin' 

Em for a moment

*and second verse is the same like the first, and then...

G - G/F# - Cadd9 x3 time and then... Em / D / C

then there's this part (listen to understand how it goes) - 
e|---------------|
B|---------------|
G|---------------|
D|--7-7-10-7-10--|
A|--7-7-10-7-10--|
E|--5-5-8--5-8---|

Cadd9                                       G
She's a concept, she's constructed by her mom
Cadd9                                          G 
Don't you see it, doesn't that just sound like fun 
Dsus2                    Cadd9 Dsus2             Cadd9
I wish to be part of her plan, I'm no more than a tool now 
Dsus2                  Cadd9 Dsus2             Cadd9
I wish to one day be her man, I guess I have to cool down 
Cadd9              G                           Cadd9           
I guess I have to wait around, For in my mind I work out 
Cadd9              G                           Cadd9           
A part of me can still be found, Out among the show-outs 
Cadd9              G                                 Cadd9
Smashing my guitar on the ground, The muscle pulling in crowds
Cadd9            G           
Working on that lea down 

then there's this part (listen to understand how it goes) - 
e|---------------|---------------|
B|---------------|---------------|
G|---------------|---------------|
D|--7-7-10-7-10--|--9-9-12-9-12--|
A|--7-7-10-7-10--|--9-9-12-9-12--|
E|--5-5-8--5-8---|--7-7-10-7-10--|

Cadd9                                G
I'm happy, I was brought up just the same 
Cadd9                         G
Oh amusing, is not part of my game 
Dsus2                          Cadd9 Dsus2              Cadd9
I do you believe that I fit the shoe, If only I could tell her 
Dsus2                           Cadd9 Dsus2             Cadd9
Baby can't you see I'm just like you, Not like any other fella

end on G 

   _______________________   _______________________
  /    on the Cadd9       \ /     over the G        \
e|-------------------------|-------------------------|
B|-------------------------|-------------------------|
G|-------0-----0-----0-----|-------0-----0-----0-----|
D|---0-----0-----0-----0---|---0-----0-----0-----0---|
A|-3---3-----3-----3-----3-|-------------------------|
E|-------------------------|-3---3-----3-----3-----3-|

   _______________________   _______________________
  /    on the Dsus2       \ /     over the Cadd9    \
e|-------------------------|-------------------------|
B|-------------------------|-------------------------|
G|-------0-----0-----0-----|-------0-----0-----0-----|
D|---0-----0-----0-----0---|---0-----0-----0-----0---|
A|-5---5-----5-----5-----5-|-3---3-----3-----3-----3-|
E|-------------------------|-------------------------|

chords structures - 
  Cadd9 Dsus2  G/F#
e|--3--|--3--|--3--|
B|--3--|--3--|--3--|
G|--0--|--2--|--0--|
D|--2--|--0--|--0--|
A|--3--|-----|--2--|
E|-----|-----|--2--|

...this is fucking amazingly beautiful ! :-)

Добавлено: 13.07.2013
Другие материалы по этой песне:
  • Аккорды и текст

Страница создана 13.07.2013
http://primanota.ru/deus/you-cant-deny-what-you-liked-as-a-child-chords.htm
Привет, Гость.
Предлагаем пройти революционный курс по гитаре.
Подарок от PrimaNota.Ru, забирай!