PrimaNota.ru - самый крупный в мире бесплатный архив песенных текстов, аккордов, табулатур и нот


Deus - Supermarketsong - текст песни, таба, бас-таба, видео

Регистрация Запомнить меня
Войти через:  Facebook Google Twitter Vk Yandex Mail.ru

Deus - Supermarketsong - текст песни, таба, бас-таба, видео

Печатать
Просмотров: 139
Supermarketsong  -  dEUS

tab by Stewart & Avi

Intro - 
e|----------|
B|----------|
G|-----6vib-|
D|---4------|
A|-5--------|
E|----------|

Verse - 
       D            A            B            E
e|--5------2--|--5------0--|--7------2--|--7------0--|
B|--7------3--|--5------2--|--7------4--|--9------0--|
G|--7-(or)-2--|--6-(or)-2--|--8-(or)-4--|--9-(or)-1--|
D|--7------0--|--7------2--|--9------4--|--9------2--|
A|--5---------|--7------0--|--9------2--|--7------2--|
E|------------|--5---------|--7---------|---------0--|

Bridge (“it goes to show...”) - 
G / D / G / D / G / D / G

Chorus -
      A           C#        B          F# 
e|-5------0-|-9------4-|-7------2-|-7------2-|
B|-5------2-|-9------6-|-7------4-|-7------2-|
G|-6-(or)-2-|-10-(or)6-|-8-(or)-4-|-7-(or)-3-|
D|-7------2-|-11-----6-|-9------4-|-7------4-|
A|-7------0-|-11-----4-|-9------2-|-9------4-|
E|-5--------|-9--------|-7--------|--------2-|

during the solo play the verse chords
Добавлено: 28.09.2013
Другие материалы по этой песне:
  • Аккорды и текст

Страница создана 26.03.2012
http://primanota.ru/deus/supermarketsong-chords.htm
Привет, Гость.
Предлагаем пройти революционный курс по гитаре.
Подарок от PrimaNota.Ru, забирай!