PrimaNota.ru - самый крупный в мире бесплатный архив песенных текстов, аккордов, табулатур и нот


Deus - Suds Ans Soda - бас-таба, видео

Регистрация Запомнить меня
Войти через:  Facebook Google Twitter Vk Yandex Mail.ru

Deus - Suds Ans Soda - бас-таба, видео

Печатать
Просмотров: 135
Suds and Soda - dEUS - Worst Case Scenario

INTRO

G|---------------------------------------------------|---9-7---7-------|
D|---------------------------------------------------|-------9---9-7/5-|
A|-5/7-7-7-77---5/7-7-7-77---5/7-7-7-77---5/7-7-7-77-|-----------------|
E|---------------------------------------------------|-----------------|

VERSE

G|---------------------------------|
D|---------------------------------|
A|-7-7-7-7-7-7-7-7-----------------|
E|-----------------5-5-5-5-7-7-7-7-|

PRE CHORUS

G|-------------------|-----------------|
D|-------------------|-----------------|
A|-4-4-4-4-4-4-4-4-4-|---------5-7-----|
E|-------------------|-5-7-5-7-----5-7-|

CHORUS

G|---------------------------------|
D|---------------------------------|
A|-----------------------------4-5-|
E|-5-5-5-5-5-5-5-5-7-7-7-7-7-7-----|

BRIDGE
             (1)                  (2)
G|--------------------------------------------------|
D|--------------------------------------------------|
A|-5h7-7-7-7--------5------5h7-7-7-7--7-5---5-------|
E|------------5-6-7---7-------------------7---7-5-3-|

part 1 and 2 are repeated several times, but not in this order, you'll have to hear to 
(by the way very good) song.
Добавлено: 19.07.2012
Другие материалы по этой песне:
  • Аккорды и текст

Страница создана 19.07.2012
http://primanota.ru/deus/suds-ans-soda-chords.htm
Привет, Гость.
Предлагаем пройти революционный курс по гитаре.
Подарок от PrimaNota.Ru, забирай!