PrimaNota.ru - самый крупный в мире бесплатный архив песенных текстов, аккордов, табулатур и нот


Deus - Sam Peckinpahs Daughter - таба

Регистрация Запомнить меня
Войти через:  Facebook Google Twitter Vk Yandex Mail.ru

Deus - Sam Peckinpahs Daughter - таба

Печатать
Просмотров: 96
Sam Peckinpah's Daughter

Tab by Avi & Cyrl Mukhin (soup@postman.ru)

Intro... 

Guitar 1 -
e|---------------------------|
B|---------------------------|
G|---------------------------|
D|-----0-2-------------------|
A|-2h3-----3-2-0-2-2-2-2-0-2-|
E|---------------3-3-3-3-0-3-|

The second guitar does this -
e|---------------|--------------|
B|-------------8-|---10---9---8-|
G|-5-6-5-7-7-5---|-7----6---5---|
D|---------------|--------------|
A|---------------|--------------|
E|---------------|--------------|

As far as I can figure, the entire song is a B / E

Most of the song is two guitars playing these riffs together...

guitar 1 -                     guitar 2 - 
e|-------------------|         e|---------------------|
B|-------------------|         B|---------------------|
G|-----2-2-----------|         G|-----2-2-------5-5-4-|
D|---4-----4---4-----|         D|---4-----4---4-------|
A|-2---------2-----4-|         A|-2---------2---------|
E|---------------2---|         E|---------------------|

Transtion - 
e|-----|-----|-----|-----|
B|-----|-----|-----|-----|
G|---4-|-----|---4-|-----|
D|-2---|---4-|-2---|---4-|
A|-----|-2---|-----|-2---|
E|-----|-----|-----|-----|

Bridge – 
    B     E
e|--7--|--7--|
B|--7--|--9--|
G|--8--|--9--|
D|--9--|--9--|
A|--9--|--7--|
E|--7--|-----|

bridge riff...
e|-------------------------------|
B|--------9----------------------|
G|-9br--------9br—12b-11b-10b-9b-|
D|-----9----9--------------------|
A|-------------------------------|
E|-------------------------------|
that's about it,
cool or what !!
enjoy !

     
Добавлено: 17.06.2013
Вам также может быть интересно:
Другие материалы по этой песне:
  • Аккорды и текст

Страница создана 17.06.2013
http://primanota.ru/deus/sam-peckinpahs-daughter-chords.htm
Привет, Гость.
Предлагаем пройти революционный курс по гитаре.
Подарок от PrimaNota.Ru, забирай!