PrimaNota.ru - самый крупный в мире бесплатный архив песенных текстов, аккордов, табулатур и нот


Deus - Mute - аккорды и текст, таба, бас-таба, видео

Регистрация Запомнить меня
Войти через:  Facebook Google Twitter Vk Yandex Mail.ru

Deus - Mute - аккорды и текст, таба, бас-таба, видео

Печатать
Просмотров: 193
Mute
Deus
		   t. See http://www..net/faq/ for more information.                     #
#-----------------------------------------------------------------------------#


dEUS

Mute

from the 1994 album wcs

Tabbed by Lisa Eriksson

Intro:

Bass with drums over random guitar noise.:

--------------------------------------------------
---------11-11----9-7--------8-8-------7-5--------
----------------------9---------------------7-----
--7~9-9-------7-7-------6-6------5-5--------------

Bridge (Her grass is pale green...) :

Bass:
----------------------------------------------------
------11-11-----9-9------7------7---6---6---6---6---
----------------------------------------------------
--9-9-------7-7------5-5---5-5----4---4---4---4-----

Chorus:

C#5 - B5 - A5 - D5

Bass:                            Outro ¡                     Break *
-----------|----------|---------|-----------|------|-------|-------|
-----11-11-|------9-9-|-------7-|-7-5-------|-5--5-|--6--6-|--6--6-|
-----------|----------|---------|-----7-5---|------|-------|-------|
-9-9-9-----|-7-7-7----|-5-5-5---|---------7-|------|-4---4-|-4--4--|

Lead Guitar:
----------|----------|----------|--12b--|--12b-|-------|--------|
----------|--9vib----|--9vib----|-------|------|--10-9-|--10-9--|
----------|----------|----------|-------|------|-------|--------|
----------|----------|----------|-------|------|-------|--------|
----------|----------|----------|-------|------|-------|--------|
----------|----------|----------|-------|------|-------|--------|

"    Ab            E    A, Ab"

Middle (...keeping it low) : C#5 - B5 - Bb5 - A5

Bass during the last chorus :

G----------|-------------|
D------8---|--8-6--------|
A----------|------8-6----|
E--6-6-----|----------8--|  Stop at the break     
Добавлено: 27.08.2013
Другие материалы по этой песне:
  • Аккорды и текст

Страница создана 16.04.2012
http://primanota.ru/deus/mute-chords.htm
Привет, Гость.
Предлагаем пройти революционный курс по гитаре.
Подарок от PrimaNota.Ru, забирай!