PrimaNota.ru - самый крупный в мире бесплатный архив песенных текстов, аккордов, табулатур и нот


Deus - Little Arythmetics - таба, видео

Регистрация Запомнить меня
Войти через:  Facebook Google Twitter Vk Yandex Mail.ru

Deus - Little Arythmetics - таба, видео

Печатать
Просмотров: 93
dEUS = Little Arithmetics
 From the album: "In a bar under the sea"
Transcripted by Bonta' Alessio (kiroky@libero.it)


INTRO:

e|-------0---------3-------------0---------3---------1-------1---|
B|---------1-----------------------1-----------------1-------1---|
G|-----------2-----------------------2---------------2-------2---|
D|---------------------------------------------------3-------3---|
A|--0-----------------------0------------------------------------|
E|---------------------------------------------------------------|

VERSE:

Lead Guitar play this during the Am and the F chords:

  Am                               F                                  4 Times
e|---3-------3-------3-------3----|-----3-------3-------3-------3--|
B|-----1-------1-------1-------1--|---1-------1-------1-------1----|
G|-2-------2-------2-------2------|-0-------0-------0-------0------|
D|--------------------------------|--------------------------------|
A|--------------------------------|--------------------------------|
E|--------------------------------|--------------------------------|


CHORUS:

         C              G   Am
         Hold me now ...
         F
         Little Arithmetics
         C              G   Am
         Got me down, ...
         F
         Little Arithmetics...
      F                    G
      Little Arithmetics...


During the last 4 chords the lead guitar play (with hard distorsion):

  Am                           F                                x2
e|----------------------------|------------------------------|
B|----------------------------|------------------------------|
G|---------9------------------|-7----------------------------|
D|-7--------------------------|---------10------------9-10-9-|
A|----------------------------|------------------------------|
E|----------------------------|------------------------------|

VERSE:

Lead Guitar play this during the Am and the F chords:

  Am                               F                                  4 Times
e|---3-------3-------3-------3----|-----3-------3-------3-------3--|
B|-----1-------1-------1-------1--|---1-------1-------1-------1----|
G|-2-------2-------2-------2------|-0-------0-------0-------0------|
D|--------------------------------|--------------------------------|
A|--------------------------------|--------------------------------|
E|--------------------------------|--------------------------------|

CHORUS:

         C              G   Am
         Hold me now ...
         F
         Little Arithmetics
         C              G   Am
         Got me down, ...
         F
         Little Arithmetics...
      F                    G
      Little Arithmetics...


RE-INTRO: play the intro tab.


REPRISE:

Play the chords Am and F four times and during this chords the lead guitar 
play this:

  Am                           F                                x4
e|----------------------------|------------------------------|
B|----------------------------|------------------------------|
G|---------9------------------|-7----------------------------|
D|-7--------------------------|---------10------------9-10-9-|
A|----------------------------|------------------------------|
E|----------------------------|------------------------------|


Then the chords is the same of the CHORUS:

C , G , Am , F   2 Times

END:


The group reprise playing the Am and F chords until the end of the song.
During every chords the lead guitar play this (hard distorsion):

e|----------------------------------------------------------|
B|----------------------------------------------------------|
G|---------------------11---------------------------11------|
D|-9-12-12-12-11---9------------9-12-12-12-11---9-----------|
A|----------------------------------------------------------|
E|----------------------------------------------------------|


ad.lib.

Send your questions to kiroky@libero.it
     
Добавлено: 08.07.2013
Другие материалы по этой песне:
  • Аккорды и текст

Страница создана 08.07.2013
http://primanota.ru/deus/little-arythmetics-chords.htm
Привет, Гость.
Предлагаем пройти революционный курс по гитаре.
Подарок от PrimaNota.Ru, забирай!