PrimaNota.ru - самый крупный в мире бесплатный архив песенных текстов, аккордов, табулатур и нот


Deus - Let's See Who Goes Down First - текст песни, таба, видео

Регистрация Запомнить меня
Войти через:  Facebook Google Twitter Vk Yandex Mail.ru

Deus - Let's See Who Goes Down First - текст песни, таба, видео

Печатать
Просмотров: 133
Уроки эстрадного вокала в Санкт-Петербурге
Let's See Who Goes Down First

trans. by Avi & Stewart 

Verse -
Em

the main riff is actually on the violin but...
e|--------------|---------|
B|--------------|---------|
G|----2-3-4-5-6-|---------|
D|--------------|-4-5-6-5-|
A|-2------------|---------|
E|--------------|---------|

Bridge -
A

with this riff - 
e|---------3-|-----------|
B|-5-4-5-4---|---5---5-8-|
G|-----------|-6---6-----|
D|-----------|-----------|
A|-----------|-----------|
E|-----------|-----------|

at 2:00 - 
e|----------|----------------------|
B|-17-17-17-|-----17br-------------|
G|----------|----------16-16----15-|
D|----------|-14-------------17----|
A|----------|----------------------|
E|----------|----------------------|

from ” wasn't longing...” until the end -
D / D / Am / C

there's also this riff from 3:57 till the end - 
   ________________________
  /      three times       \
e|---------------|----------|---------------|---------|
B|---------------|----------|---------------|---------|
G|---------------|--------7-|---------------|---------|
D|---3---5---3---|---3------|---3---5---3---|---------|
A|-5---5---5---5-|-5---5----|-5---5---5---5-|-3-3-0-0-|
E|---------------|----------|---------------|---------|
 
and at the “real” end there's this...
   ____________________________
  /            repeat          \
e|----------------|-------------|-----|--------------|
B|----------------|-------------|-----|--------------|
G|----7br-----7br-|-------------|-----|----0------7b-|
D|----------------|---3---3-----|-----|--------------|
A|-5-------5------|-5---5---5-3-|-3/8-|-8----7-5-----|
E|----------------|-------------|-----|--------------|




-----
Bass
-----

tab by Avi

Verse - 
G|-----|-----|-----|
D|-----|-7-7-|-----|
A|--7--|-----|-5-7-|
E|-----|-----|-----|

Bridge - 
G|-----|-9/10-|-----|
D|-----|------|-7---|
A|-0-0-|------|---7-|
E|-----|------|-----|

then from 2:14 till the end - 
G|----------|------|------|--------------|------|------|
D|----------|------|------|--------------|------|------|
A|-5-5-5...-|-0...-|-3...-|-3h5-5-5-5...-|-0...-|-3...-|
E|----------|------|------|--------------|------|------|

I love it.
Добавлено: 21.10.2013
Другие материалы по этой песне:
  • Аккорды и текст

Страница создана 09.05.2012
http://primanota.ru/deus/lets-see-who-goes-down-first-chords.htm
Привет, Гость.
Предлагаем пройти революционный курс по гитаре.
Подарок от PrimaNota.Ru, забирай!