PrimaNota.ru - самый крупный в мире бесплатный архив песенных текстов, аккордов, табулатур и нот


Deus - Kinderballade - таба, видео

Регистрация Запомнить меня
Войти через:  Facebook Google Twitter Vk Yandex Mail.ru

Deus - Kinderballade - таба, видео

Печатать
Просмотров: 85
Kinderballade 

tab by Avi

ok, this song is actually one of my favorites although I don't 
understand a word they're saying :-) 
anyway, the guitar here doesn't have a “real” structure and no 
verse/chorus/or whatever ...so anyway, here's just the chords 
structures he uses in the song, usually fret them, just mess around 
with it, it's not too hard to figure out...
 
Intro -
e|---9---9---9------|
B|-7---7---7---7...-|
G|------------------|
D|------------------|
A|------------------|
E|------------------|

the chords...
    A     B     C     D     G
e|-----|-----|-----|-----|-----|
B|-----|-----|-----|-----|-----|
G|--2--|--4--|--5--|--7--|-----|
D|--2--|--4--|--5--|--7--|--5--|
A|--0--|--2--|--3--|--5--|--5--|
E|-----|-----|-----|-----|--3--|

for example, 
here's Tom's part (3:55 - 4:33) - 
e|-----------------|-----------------|-----------------|
B|-----------------|-----------------|-----------------|
G|-----5-----5-----|-----4-----4-----|-----5-----5-----|
D|---5-----5-----5-|---4-----4-----4-|---5-----5-----5-|
A|-3-----3-----3---|-2-----2-----2---|-3-----3-----3---|
E|-----------------|-----------------|-----------------|
                             ___________
                            /  repeat   \
e|-----------------|-------|-------------|-----------------|
B|-----------------|-------|-------------|-----------------|
G|-----7-----7-----|-----5-|-----2-----2-|-----7-----7-----|
D|---7-----7-----7-|---5---|---2-----2---|---7-----7-----7-|
A|-5-----5-----5---|-3-----|-0-----0-----|-5-----5-----5---|
E|-----------------|-------|-------------|-----------------|

e|----------------------------------|-----------------|
B|----------------------------------|-----------------|
G|-----2-----2----------2-----2-----|-----------------|
D|---2-----2-----2----2-----2-----2-|-----5-----5-----|
A|-0-----0-----0----0-----0-----0---|---5-----5-----5-|
E|----------------------------------|-3-----3-----3---|

          “I      can   hear...” 
e|-----------------|-----------------|-------------------|
B|-----------------|-----------------|-------------------|
G|-----5-----5-----|-----7-----7-----|-------------------|
D|---5-----5-----5-|---7-----7-----7-|-----5-----5-----5-|
A|-3-----3-----3---|-5-----5-----5---|---5-----5-----5---|
E|-----------------|-----------------|-3-----3-----3-----|
Добавлено: 09.07.2013
Другие материалы по этой песне:
  • Аккорды и текст

Страница создана 09.07.2013
http://primanota.ru/deus/kinderballade-chords.htm
Привет, Гость.
Предлагаем пройти революционный курс по гитаре.
Подарок от PrimaNota.Ru, забирай!