PrimaNota.ru - самый крупный в мире бесплатный архив песенных текстов, аккордов, табулатур и нот


Detroit Metal City - Satsugai - текст песни, таба, видео

Регистрация Запомнить меня
Войти через:  Facebook Google Twitter Vk Yandex Mail.ru

Detroit Metal City - Satsugai - текст песни, таба, видео

Печатать
Просмотров: 526
This is Satsugai for everyone that doesn't have Guitar Pro ;D (Just exported the guitar 
file to ASCII)
Also, guitar pro is a bitch and put the things (palm mute, etc. next to the note instead 
above. Just whenever there's an m next to a number, palm mute. Same with the rest of 
letters/symbols.)
Title: SATSUGAI
Artist: Detroit Metal City
Copyright: Brian Lee
Tabber: Brian Lee
Tempo = 210
G (L)

Legend
L - tied note
x - dead note
h - hammer on/pull off
b - bend
s - slide
~ - vibrato
g - ghost note
> - accentuated note
t - trill
M - palm mute
. - staccato
P - popping (bass)
S - slapping (bass)
+ - tapping
W - wide vibrato
< - fade in
w - whammy bar
= - tremolo picking
v - brush up
^ - brush down
V - pick stroke up
n - pick stroke down


e |----------------|----------------|----------------|----------------|
B |----------------|----------------|----------------|----------------|
G |----------------|----------------|----------------|----------------|
D |--------1-------|--------3-------|--------6-------|--------5-------|
A |--------1-------|--------3-------|--------6-------|--------5-------|
E |--0--0M-1-------|--0--0M-3-------|--0--0M-6-------|--0--0M-5-------|


----------------|----------------|----------------|----------------|
----------------|----------------|----------------|----------------|
----------------|----------------|----------------|----------------|
--------1-------|--------3-------|--------6-------|--------5-------|
--------1-------|--------3-------|--------6-------|--------5-------|
--0--0M-1-------|--0--0M-3-------|--0--0M-6-------|--0--0M-5-------|


----------------|----------------|----------------|----------------|
----------------|----------------|----------------|----------------|
----------------|----------------|----------------|----------------|
--------1-------|--------3-------|--------6-------|--------5-------|
--------1-------|--------3-------|--------6-------|--------5-------|
--0--0M-1-------|--0--0M-3-------|--0--0M-6-------|--0--0M-5-------|


----------------|----------------|----------------|----------------|
----------------|----------------|----------------|----------------|
----------------|----------------|----------------|----------------|
--------1-------|--------3-------|--------6-------|--------5-------|
--------1-------|--------3-------|--------6-------|--------5-------|
--0--0M-1-------|--0--0M-3-------|--0--0M-6-------|--0--0M-5-------|


----------------------------|----------------------------|
----------------------------|----------------------------|
----------------------------|----------------------------|
----------------------------|----------------------------|
----------------------------|----------------------------|
--0--6--5--0--3--5--0--3----|--5--0--3--5--0--6--5--3----|


----------------------------|----------------------------|
----------------------------|----------------------------|
----------------------------|----------------------------|
----------------------------|----------------------------|
----------------------------|----------------------------|
--0--6--5--0--3--5--0--3----|--5--0--3--5--0M-0M-0M-0M---|


----------------------------|----------------------------|
----------------------------|----------------------------|
----------------------------|----------------------------|
----------------------------|----------------------------|
----------------------------|----------------------------|
--0--6--5--0--3--5--0--3----|--5--0--3--5--0--6--5--3----|


----------------------------|----------------------------|
----------------------------|----------------------------|
----------------------------|----------------------------|
----------------------------|----------------------------|
----------------------------|--------------5M-5M-5M-5M---|
--0--6--5--0--3--5--0--3----|--5--0--3--5--0M-0M-0M-0M---|


----------------------------|----------------------------|
----------------------------|----------------------------|
----------------------------|----------------------------|
----------------------------|----------------------------|
----------------------------|----------------------------|
--0--6--5--0--3--5--0--3----|--5--0--3--5--0--6--5--3----|


----------------------------|----------------------------|
----------------------------|----------------------------|
----------------------------|----------------------------|
----------------------------|----------------------------|
----------------------------|----------------------------|
--0--6--5--0--3--5--0--3----|--5--0--3--5--0M-0M-0M-0M---|


----------------------------|----------------------------|
----------------------------|----------------------------|
----------------------------|----------------------------|
----------------------------|----------------------------|
----------------------------|----------------------------|
--0--6--5--0--3--5--0--3----|--5--0--3--5--0--6--5--3----|


----------------------------|----------------------------|
----------------------------|----------------------------|
----------------------------|----------------------------|
----------------------------|----------------------------|
----------------------------|--------------5M-5M-5M-5M---|
--0--6--5--0--3--5--0--3----|--5--0--3--5--0M-0M-0M-0M---|


----------------------------|----------------------------|
----------------------------|----------------------------|
----------------------------|----------------------------|
----------------------------|----------------------------|
----------------------------|----------------------------|
--0--6--5--0--3--5--0--3----|--5--0--3--5--0--6--5--3----|


----------------------------|----------------------------|
----------------------------|----------------------------|
----------------------------|----------------------------|
----------------------------|----------------------------|
----------------------------|----------------------------|
--0--6--5--0--3--5--0--3----|--5--0--3--5--0M-0M-0M-0M---|


----------------------------|----------------------------|
----------------------------|----------------------------|
----------------------------|----------------------------|
----------------------------|----------------------------|
----------------------------|----------------------------|
--0--6--5--0--3--5--0--3----|--5--0--3--5--0--6--5--3----|


----------------------------|----------------------------|
----------------------------|----------------------------|
----------------------------|----------------------------|
----------------------------|----------------------------|
----------------------------|--------------5M-5M-5M-5M---|
--0--6--5--0--3--5--0--3----|--5--0--3--5--0M-0M-0M-0M---|


----------------------------|----------------------------|
----------------------------|----------------------------|
--7-----------------8-------|----------------------------|
----------------------------|----------------------------|
--5-----------------6-------|----------------------------|
--------0M-0M----0----------|--0M-0M----0M-0M----0M------|


----------------------------|----------------------------|
----------------------------|----------------------------|
--7-----------------8-------|--------------------8s-10---|
----------------------------|----------------------------|
--5-----------------6-------|--------------------6s-8----|
--------0M-0M----0----------|--0M-0M----0M-0M------------|


----------------------------|----------------------------|
----------------------------|----------------------------|
--7-----------------8-------|----------------------------|
----------------------------|----------------------------|
--5-----------------6-------|----------------------------|
--------0M-0M----0M---------|--0M-0M----0M-0M----0M------|


----------------------------|----------------------------|-------|
----------------------------|----------------------------|-------|
--7-----------------8-------|--------------------10s-----|-------|
----------------------------|----------------------------|--2L---|
--5-----------------6-------|--------------------8s------|--2L---|
--------0M-0M----0----------|--0M-0M----0M-0M------------|--2L---|


----------------|-------|----------------|-------|----------------|-------|
----------------|-------|----------------|-------|----------------|-------|
----------------|-------|----------------|-------|----------------|-------|
--2--------2----|--5L---|--5--------5----|--0L---|--0--------0----|--3L---|
--2--------2----|--5L---|--5--------5----|--0L---|--0--------0----|--3L---|
--2--------2----|--5L---|--5--------5----|--0L---|--0--------0----|--3L---|


----------------|-------|----------------|-------|----------------|-------|
----------------|-------|----------------|-------|----------------|-------|
----------------|-------|----------------|-------|----------------|-------|
--3--------3----|--2L---|--2--------2----|--5L---|--5--------5----|--0L---|
--3--------3----|--2L---|--2--------2----|--5L---|--5--------5----|--0L---|
--3--------3----|--2L---|--2--------2----|--5L---|--5--------5----|--0L---|


----------------|-------|----------------------|----------------------------|
----------------|-------|----------------------|----------------------------|
----------------|-------|----------------------|----------------------------|
--0--------0----|--3L---|--3--------5--4--3----|--2L----2s-------------3L---|
--0--------0----|--3L---|--3--------5--4--3----|----------------------------|
--0--------0----|--3L---|--3--------5--4--3----|--------------2-------------|


----------------------------------------------------------------------------|
----------------------------------------------------------------------------|
----------------------------------------------------------------------------|
--3L----------------3s------------------------------------------------------|
----------------------------------------------------------------------------|
-----------------------------3--------------------------2-----3-----5-------|


----------------------------|
----------------------------|
----------------------------|
--2L----2s-------------3L---|
----------------------------|
--------------2-------------|


----------------------------------------------------------------------------|
----------------------------------------------------------------------------|
----------------------------------------------------------------------------|
--3L----------------3s------------------------------------------------------|
----------------------------------------------------------------------------|
-----------------------------3--------------------------2-----3-----5-------|


----------------------------|----------------------------|
----------------------------|----------------------------|
----------------------------|----------------------------|
----------------------------|----------------------------|
----------------------------|----------------------------|
--0--6--5--0--3--5--0--3----|--5--0--3--5--0M-0M-0M-0M---|


----------------------------|----------------------------|
----------------------------|----------------------------|
----------------------------|----------------------------|
----------------------------|----------------------------|
----------------------------|----------------------------|
--0--6--5--0--3--5--0--3----|--5--0--3--5--0--6--5--3----|


----------------------------|----------------------------|
----------------------------|----------------------------|
----------------------------|----------------------------|
----------------------------|----------------------------|
----------------------------|----------------------------|
--0--6--5--0--3--5--0--3----|--5--0--3--5--0M-0M-0M-0M---|


----------------------------|----------------------------|
----------------------------|----------------------------|
----------------------------|----------------------------|
----------------------------|----------------------------|
----------------------------|----------------------------|
--0--6--5--0--3--5--0--3----|--5--0--3--5--0--6--5--3----|


----------------------------|----------------------------|
----------------------------|----------------------------|
----------------------------|----------------------------|
----------------------------|----------------------------|
----------------------------|--------------5M-5M-5M-5M---|
--0--6--5--0--3--5--0--3----|--5--0--3--5--0M-0M-0M-0M---|


----------------------------|----------------------------|
----------------------------|----------------------------|
----------------------------|----------------------------|
----------------------------|----------------------------|
----------------------------|----------------------------|
--0--6--5--0--3--5--0--3----|--5--0--3--5--0--6--5--3----|


----------------------------|----------------------------|
----------------------------|----------------------------|
----------------------------|----------------------------|
----------------------------|----------------------------|
----------------------------|----------------------------|
--0--6--5--0--3--5--0--3----|--5--0--3--5--0M-0M-0M-0M---|


----------------------------|----------------------------|
----------------------------|----------------------------|
----------------------------|----------------------------|
----------------------------|----------------------------|
----------------------------|----------------------------|
--0--6--5--0--3--5--0--3----|--5--0--3--5--0--6--5--3----|


----------------------------|----------------------------|
----------------------------|----------------------------|
----------------------------|----------------------------|
----------------------------|----------------------------|
----------------------------|--------------5M-5M-5M-5M---|
--0--6--5--0--3--5--0--3----|--5--0--3--5--0M-0M-0M-0M---|


----------------------------|----------------------------|
----------------------------|----------------------------|
----------------------------|----------------------------|
----------------------------|----------------------------|
----------------------------|----------------------------|
--0--6--5--0--3--5--0--3----|--5--0--3--5--0--6--5--3----|


----------------------------|----------------------------|
----------------------------|----------------------------|
----------------------------|----------------------------|
----------------------------|----------------------------|
----------------------------|----------------------------|
--0--6--5--0--3--5--0--3----|--5--0--3--5--0M-0M-0M-0M---|


----------------------------|----------------------------|
----------------------------|----------------------------|
----------------------------|----------------------------|
----------------------------|----------------------------|
----------------------------|----------------------------|
--0--6--5--0--3--5--0--3----|--5--0--3--5--0--6--5--3----|


----------------------------|----------------------------|
----------------------------|----------------------------|
----------------------------|----------------------------|
----------------------------|----------------------------|
----------------------------|--------------5M-5M-5M-5M---|
--0--6--5--0--3--5--0--3----|--5--0--3--5--0M-0M-0M-0M---|


----------------------------|----------------------------|
----------------------------|----------------------------|
--7-----------------8-------|----------------------------|
----------------------------|----------------------------|
--5-----------------6-------|----------------------------|
--------0M-0M----0----------|--0M-0M----0M-0M----0M------|


----------------------------|----------------------------|
----------------------------|----------------------------|
--7-----------------8-------|--------------------8s-10---|
----------------------------|----------------------------|
--5-----------------6-------|--------------------6s-8----|
--------0M-0M----0----------|--0M-0M----0M-0M------------|


----------------------------|----------------------------|
----------------------------|----------------------------|
--7-----------------8-------|----------------------------|
----------------------------|----------------------------|
--5-----------------6-------|----------------------------|
--------0M-0M----0M---------|--0M-0M----0M-0M----0M------|


----------------------------|----------------------------|-------|
----------------------------|----------------------------|-------|
--7-----------------8-------|--------------------10s-----|-------|
----------------------------|----------------------------|--2L---|
--5-----------------6-------|--------------------8s------|--2L---|
--------0M-0M----0----------|--0M-0M----0M-0M------------|--2L---|


----------------|-------|----------------|-------|----------------|-------|
----------------|-------|----------------|-------|----------------|-------|
----------------|-------|----------------|-------|----------------|-------|
--2--------2----|--5L---|--5--------5----|--0L---|--0--------0----|--3L---|
--2--------2----|--5L---|--5--------5----|--0L---|--0--------0----|--3L---|
--2--------2----|--5L---|--5--------5----|--0L---|--0--------0----|--3L---|


----------------|-------|----------------|-------|----------------|-------|
----------------|-------|----------------|-------|----------------|-------|
----------------|-------|----------------|-------|----------------|-------|
--3--------3----|--2L---|--2--------2----|--5L---|--5--------5----|--0L---|
--3--------3----|--2L---|--2--------2----|--5L---|--5--------5----|--0L---|
--3--------3----|--2L---|--2--------2----|--5L---|--5--------5----|--0L---|

                                                                  =  =
----------------|-------|----------------------|-------|-------|----------|
----------------|-------|----------------------|-------|-------|--2~-1~---|
----------------|-------|----------------------|-------|-------|----------|
--0--------0----|--3L---|--3--------5--4--3----|--0L---|--0b---|----------|
--0--------0----|--3L---|--3--------5--4--3----|-------|-------|----------|
--0--------0----|--3L---|--3--------5--4--3----|--0L---|--0----|----------|

  =  =       =  =       =  =       =  =       =  =
----------|----------|----------|--17~16~--|----------|
--5~-4~---|--10~9~---|--17~16~--|----------|--17~16~--|
----------|----------|----------|----------|----------|
----------|----------|----------|----------|----------|
----------|----------|----------|----------|----------|
----------|----------|----------|----------|----------|


--8--9--10-11-12-13-14-15-16-17-18-19-20-21-22-22-22-21-20-19-18-17-16-15-14-13-|
--------------------------------------------------------------------------------|
--------------------------------------------------------------------------------|
--------------------------------------------------------------------------------|
--------------------------------------------------------------------------------|
--------------------------------------------------------------------------------|


12-11-10-9--8--7----|--12-21-12-9--21-12-21-12-20-12-21-12-20-12-20-12---|
--------------------|----------------------------------------------------|
--------------------|----------------------------------------------------|
--------------------|----------------------------------------------------|
--------------------|----------------------------------------------------|
--------------------|----------------------------------------------------|


--12-17-12-9--17-12-17-12-16-12-17-12-16-12-16-12---|
----------------------------------------------------|
----------------------------------------------------|
----------------------------------------------------|
----------------------------------------------------|
----------------------------------------------------|


--14-15-16-17-18-19-20-21-22-23-24-24L24b-----------|
----------------------------------------------------|
----------------------------------------------------|
----------------------------------------------------|
----------------------------------------------------|
----------------------------------------------------|

  =           =                =           =                =
--9~------------------------|--12~-----------------------|--15~--|
--------------13~-----------|--------------16~-----------|-------|
----------------------------|----------------------------|-------|
----------------------------|----------------------------|-------|
----------------------------|----------------------------|-------|
----------------------------|----------------------------|-------|

  =
----------------|----------------------------|----------------------------|
--17L---17-17s--|----------------------------|----------------------------|
----------------|----------------------------|----------------------------|
----------------|--2-----2M-2M-5--7--2-------|-----x--2M-2M-5--7--2-------|
----------------|--2-----2M-2M-5--7--2-------|-----x--2--2--5--7--2-------|
----------------|--2-----2M-2M-5--7--2-------|-----x--2--2--5--7--2-------|


----------------------------|----------------------------|
----------------------------|----------------------------|
----------------------------|----------------------------|
--2-----2M-2M-5--7--2-------|-----x--2M-2M-5--7--2-------|
--2-----2M-2M-5--7--2-------|-----x--2--2--5--7--2-------|
--2-----2M-2M-5--7--2-------|-----x--2--2--5--7--2-------|


----------------------------|----------------------------|
----------------------------|----------------------------|
----------------------------|----------------------------|
--2-----2M-2M-5--7--2-------|-----x--2M-2M-5--7--2-------|
--2-----2M-2M-5--7--2-------|-----x--2--2--5--7--2-------|
--2-----2M-2M-5--7--2-------|-----x--2--2--5--7--2-------|


----------------------------|----------------------------|-------|
----------------------------|----------------------------|-------|
----------------------------|----------------------------|-------|
--2-----2M-2M-5--7--2-------|-----x--2M-2M-5--7--2-------|--2L---|
--2-----2M-2M-5--7--2-------|-----x--2--2--5--7--2-------|--2L---|
--2-----2M-2M-5--7--2-------|-----x--2--2--5--7--2-------|--2L---|


----------------|-------|----------------|-------|----------------|-------|
----------------|-------|----------------|-------|----------------|-------|
----------------|-------|----------------|-------|----------------|-------|
--2--------2----|--5L---|--5--------5----|--0L---|--0--------0----|--3L---|
--2--------2----|--5L---|--5--------5----|--0L---|--0--------0----|--3L---|
--2--------2----|--5L---|--5--------5----|--0L---|--0--------0----|--3L---|


----------------|-------|----------------|-------|----------------|-------|
----------------|-------|----------------|-------|----------------|-------|
----------------|-------|----------------|-------|----------------|-------|
--3--------3----|--2L---|--2--------2----|--5L---|--5--------5----|--0L---|
--3--------3----|--2L---|--2--------2----|--5L---|--5--------5----|--0L---|
--3--------3----|--2L---|--2--------2----|--5L---|--5--------5----|--0L---|


----------------|-------|----------------------|----------------|
----------------|-------|----------------------|----------------|
----------------|-------|----------------------|----------------|
--0--------0----|--3L---|--3--------5--4--3----|--------3-------|
--0--------0----|--3L---|--3--------5--4--3----|--2--2--3-------|
--0--------0----|--3L---|--3--------5--4--3----|--2--2M-3-------|


----------------|----------------|----------------|----------------|
----------------|----------------|----------------|----------------|
----------------|----------------|----------------|----------------|
--------5-------|--------8-------|--------7-------|--------3-------|
--2--2M-5-------|--2--2M-8-------|--2--2M-7-------|--2--2M-3-------|
--2--2M-5-------|--2--2M-8-------|--2--2M-7-------|--2--2M-3-------|


----------------|----------------|----------------|----------------|
----------------|----------------|----------------|----------------|
----------------|----------------|----------------|----------------|
--------5-------|--------8-------|--------7-------|--------3-------|
--2--2M-5-------|--2--2M-8-------|--2--2M-7-------|--2--2M-3-------|
--2--2M-5-------|--2--2M-8-------|--2--2M-7-------|--2--2M-3-------|


----------------|----------------|----------------|----------------|
----------------|----------------|----------------|----------------|
----------------|----------------|----------------|----------------|
--------5-------|--------8-------|--------7-------|--------3-------|
--2--2M-5-------|--2--2M-8-------|--2--2M-7-------|--2--2M-3-------|
--2--2M-5-------|--2--2M-8-------|--2--2M-7-------|--2--2M-3-------|


----------------|----------------|----------------|----------||
----------------|----------------|----------------|----------||
----------------|----------------|----------------|----------||
--------5-------|--------8-------|--------7-------|----------||
--2--2M-5-------|--2--2M-8-------|--2--2M-7-------|----------||
--2--2M-5-------|--2--2M-8-------|--2--2M-7-------|----------||
Добавлено: 03.04.2012
Вам также может быть интересно:
Другие материалы по этой песне:

Страница создана 02.04.2012
http://primanota.ru/detroit-metal-city/satsugai-chords.htm
Привет, Гость.
Предлагаем пройти революционный курс по гитаре.
Подарок от PrimaNota.Ru, забирай!