PrimaNota.ru - самый крупный в мире бесплатный архив песенных текстов, аккордов, табулатур и нот


Detour - Milhouse Fancies Sarah - аккорды и текст, бас-таба

Регистрация Запомнить меня
Войти через:  Facebook Google Twitter Vk Yandex Mail.ru

Detour - Milhouse Fancies Sarah - аккорды и текст, бас-таба

Печатать
Просмотров: 87
Milhouse Fancies Sarah
Detour
NAME: Milhouse Fancies Sarah
BAND: Detour
TABBED BY: Kris Morton
 
RIFF 1 + 2
Gb|---------------------------------------------------|
Db|---------------------------7---5----7-5-4H5--------|
Ab|-7-7-7-7-7-7-7-7-7-7-------------------------------|
Eb|---------------------9-7-5---5---5-----------------|

RIFF 3 + 4 + 5
Gb|---------------------------------------------------|
Db|-7-7-5-5-4-4-5-5-7-7-5-5-4-4-5---------------------|
Ab|-------------------------------7-7-7-7-7-7-7-7-7-7-|
Eb|---------------------------------------------------|

RIFF 5 [continued]
Gb|-------------------------------------------------------------------------|
Db|---------------------------------------------7H9-------------------------|
Ab|---------9-----9-------9-------7---------7H9-----------7-----9-7-6-7-9-7-|
Eb|-7-7-7-7---7-7---7-7H9---5-5-5---7-7-7H9---------5-5-5---5-7-------------|

RIFF 6 + 7
Gb|---------------------------------------------------|
Db|-------6-------------5H7------9-----7-----9-----9--|
Ab|-4-4-4-----------5H7-----7-7---7-7---7-7---7-7-----|
Eb|---------5-5-5H7-----------------------------------|

RIFF 8 + 9
Gb|---------------------------------------------------|
Db|---------------------------------9-7-6H7-----------|
Ab|-7-7-7-7-7-6-7-6-9-9-7-7-7-7-7-7-------------------|
Eb|---------------------------------------------------|

RIFF 10
Gb|---------------------------------------------------|
Db|-----------5H7---9P7-------------------------------|
Ab|-------5H7-----------9P7-----7-7-7-7-7-7-7-R-------|
Eb|-5-5H7---------7---------9P7-----------------------|   

BASS SOLO

Gb|-----------------4-------------------------------4--------------|
Db|-----------4-6-7---7-6-4---------------------------7-6-4--------|
Ab|-----4-5-7---------------7-5-4-----4-5-7-5-4-------------7-5-4--|
Eb|-5-7---------------------------5-7-----------7-5----------------|

Wow, that took me ages to tab! The amount of times I picked up my bass to try and
remember how I played it - lucky that I scribbled some of it down on paper when I 
was tabbing it :) If your a bassist, enjoy playing it... I'm really really proud of
this bass line, too bad all of mine can't be like this (but I am the vocalist too, 
and its pretty hard to play a complicated one and sing at the same time!).

Thought I'd just add this on the end if it helps (just a rough guide to suit you people
who believe a proper song has everything):

Intro:1,2,1,3
Verse:5,5
Chorus:6,7,6,8,6,9,10
Verse:5,5
Chorus:6,7,6,8,6,9,10
Bass solo
Chorus:6,7,6,8,6,9,10

Thats just a rough guide, but if it helps, it helps. I love this tab so much that I could
lick it to taste, but then again, tabs don't have a taste...or do they? 

Magic!
Добавлено: 27.01.2014
Другие материалы по этой песне:
  • Аккорды и текст

Страница создана 11.07.2012
http://primanota.ru/detour/milhouse-fancies-sarah-chords.htm
Привет, Гость.
Предлагаем пройти революционный курс по гитаре.
Подарок от PrimaNota.Ru, забирай!