PrimaNota.ru - самый крупный в мире бесплатный архив песенных текстов, аккордов, табулатур и нот


ДЕТИДЕТЕЙ - Гімн моладзі - аккорды и текст, видео

Регистрация Запомнить меня
Войти через:  Facebook Google Twitter Vk Yandex Mail.ru

ДЕТИДЕТЕЙ - Гімн моладзі - аккорды и текст, видео

Печатать
Просмотров: 62
Гімн моладзі
ДЕТИДЕТЕЙ
Дима:
Вступление:
 Тема1:
 E||---------------8----7----|--------------------------|--------------5----3----|---------------------------||
 B||---5----5--5-5-----------|--5----5--5-5-5--6--5--3--|--5----5--5-5-----------|---------------------------||
 G||*------------------------|--------------------------|------------------------|--5----5--5-5-5--7--5--7--*||
 D||*------------------------|--------------------------|------------------------|--------------------------*||
 A||-------------------------|--------------------------|------------------------|---------------------------||
 E||-------------------------|--------------------------|------------------------|---------------------------||

 Тут начинает играть Миша (см.ниже)
 |----|--3-----3-----3-----3----|--3-----3-----3-----3----|--3-----3-----3-----3----|--3-----3-----3-----3----|
 |----|-----1-----1-----1-----1-|-----1-----1-----1-----1-|-----1-----1-----1-----1-|-----1-----1-----1-----1-|
 |----|-------------------------|-------------------------|-------------------------|-------------------------|
 |----|-------------------------|-------------------------|-------------------------|-------------------------|
 |----|-------------------------|-------------------------|-------------------------|-------------------------|
 |----|-------------------------|-------------------------|-------------------------|-------------------------|

 В первом и втором куплете какие-нибудь вариации на тему:
 |---------------------------|---------------------------||
 |---------------------------|---------------------------||
 |---------------------------|---------------------------||
 |---------------------------|---------------------------||
 |-----7--8--7--10--8--7--8--|-----7--8--7--8--7---------|| 
 |--8------------------------|--8-----------------10--8--||

Во втором и третьем припеве играется Тема1 но на октаву ниже:
 E||-------------------------|--------------------------|------------------------|---------------------------||
 B||-------------------------|--------------------------|------------------------|---------------------------||
 G||*--------------5----4----|--------------------------|------------------------|--------------------------*||
 D||*------------------------|--------------------------|--------------7----5----|--------------------------*||
 A||---7----7--7-7-----------|--7----7--7-7-7--8--7--5--|--7----7--7-7-----------|--3----3--3-3-3--5--3--5---||
 E||-------------------------|--------------------------|------------------------|---------------------------||

В третьем куплете - Тема2 (см.ниже)

Миша:
 До второго куплета включительно играется:
   C (no5) F (no3)  C5    A5
 E||-------...-------...-------...-------...
 B||-------...-------...-------...-------...
 G||-------...-------...-------...-------...
 D||--10---...--10---...--10---...---7---...      
 A||---7---...---8---...--10---...---7---...
 E||---8---...---8---...---8---...---5---...

 Припев после второго куплета:
 Тема2:
     C    F+7    C    C   C   F+7  Am
 E||------...-------...-----...-----...-----...-----...-----...
 B||--1---...---1---...--1--...--1--...--1--...--1--...--1--...
 G||--0---...---2---...--0--...--0--...--0--...--2--...--2--...
 D||--2---...---3---...--2--...--2--...--2--...--3--...--2--...
 A||--3---...---3---...--3--...--3--...--3--...--3--...--0--...
 E||--3---...---0---...--3--...--3--...--3--...--0--...-----...

 Третий куплет:  C F+7 C Am

В припеве после третьего куплета - Тема2

Концовка:
Миша, Дима:  C F+7 C F+7 ...
Добавлено: 28.03.2016
Другие материалы по этой песне:
  • Аккорды и текст

Страница создана 28.03.2016
http://primanota.ru/detidetei/gmn-moladz-chords.htm
Привет, Гость.
Предлагаем пройти революционный курс по гитаре.
Подарок от PrimaNota.Ru, забирай!