PrimaNota.ru - самый крупный в мире бесплатный архив песенных текстов, аккордов, табулатур и нот


Destruction - Black Mass - текст песни, таба, видео

Регистрация Запомнить меня
Войти через:  Facebook Google Twitter Vk Yandex Mail.ru

Destruction - Black Mass - текст песни, таба, видео

Печатать
Просмотров: 116
Уроки эстрадного вокала в Санкт-Петербурге
Авторы: Destruction

-------------------------------------------------------------------------------
 DESTRUCTION-BLACK MASS-intro solo From SENTENCE OF DEATH 1984
-------------------------------------------------------------------------------
Tabbed by:NihilView

E-mail:

Tuning: E standard EBGDAE  INTRO SOLO: 

                  
              LICK A =0:11 -0:22 sec.                                                              
                                                    3x                          
e|------------------------------------------------0p3p2p--------0p3----------|
B|-----------------------------0p4p2p0---------------------------------------| 3X=play 3 times
G|----0p4p2p0---0p4p2p0p----------------4x-----------------------------------|
D|---------------------------------------------------------------------------|  
A|---------------------------------------------------------------------------|
E|---------------------------------------------------------------------------|
    
       3x               3x                  3x
                             
e|--3p7p5p3---3p7-----8p12p10p8--8p12----7p10p8p7---7p10-----------------------------------|
B|---------------------------------------------------------7h87-5-7-5--4----------4--------|
G|-------------------------------------------------------------------------5-4-5-----5--4vv| END OF LICK A
D|-----------------------------------------------------------------------------------------| 
A|-----------------------------------------------------------------------------------------| and repeat!
E|-----------------------------------------------------------------------------------------|




               LICK B= 0:32-0:54

        4x            4x             4x
e|----------------------------------------------------45-4-------------------|
B|--10p13p12p10------8p12p10p8-----6p10p8p6------5-6-------------------------| 4x= play 4 times
G|---------------------------------------------------------------------------|
D|---------------------------------------------------------------------------|
A|---------------------------------------------------------------------------|
E|---------------------------------------------------------------------------|


                     
e|---5p8p7p5---5p8-----7p10p8p7---7p10-------------------------------------------|
B|----------------------------------------------3-4-3---------------5-6-5--------|
G|----------------------------------------3--5----------3----5---7---------------| END OF SOLO- 0:54 sec.
D|-------------------------------------------------------------------------------|
A|-------------------------------------------------------------------------------!
E|-------------------------------------------------------------------------------|



e|---------------------------------------------------------------------------|
B|---------------------------------------------------------------------------| CONTINUED WITH RIFF
G|---------------------------------------------------------------------------|
D|---5---6---7---8--------------9-------7------------------------------------|   
A|---3---4---5---6--------------7-------5---------7-5------------------------|
E|---------------------0-0-0-0------0-0-----0-0--------7-6-------------------|
                       P.M.---
                       


************************************

| /   slide up
| \   slide down
| h   hammer-on
| p   pull-off
| ~   vibrato
| +   harmonic
| x   Mute note
| b   Bend
| pb  Pre-bend
| br  Bend release
| pbr Pre-bend release
| brb Bend release bend

************************************
Добавлено: 03.12.2015
Другие материалы по этой песне:

Страница создана 15.06.2012
http://primanota.ru/destruction/black-mass-chords.htm
Привет, Гость.
Предлагаем пройти революционный курс по гитаре.
Подарок от PrimaNota.Ru, забирай!