PrimaNota.ru - самый крупный в мире бесплатный архив песенных текстов, аккордов, табулатур и нот


Destruction Of A Rose - Under Black Flags We Sail - таба, видео

Регистрация Запомнить меня
Войти через:  Facebook Google Twitter Vk Yandex Mail.ru

Destruction Of A Rose - Under Black Flags We Sail - таба, видео

Печатать
Просмотров: 94
-------------------------------------------------------------------------------
              Under Black Flags We Sail - Destruction of A Rose
-------------------------------------------------------------------------------
Tabbed by: maglehtim
Email: maglehtim@gmail.com

Tuning: Drop C

Been trying to tab out some parts of this song as I saw a request of it and no other tabs 
out there and I wanted to be able to play this song aswell.
It's not the whole song just some parts of it, and they use several guitars which 
is quite obvious.
I'll be updating it as I figure out more parts.


This is the lead guitar during intro
D|---------------------------------------------------------------------------|
A|---------------------------------------------------------------------------|
F|---------------------------------------------------------------------------|
C|--15-15h17----15-15h17-----15-15h17----20-20-20-19-19-19-19h20p19----------|
G|-----------13----------13-----------13----------------------------20~~-----|
C|---------------------------------------------------------------------------|

This is played after the GTR2's part and then you go back to the bar above again.
D|---------------------------------------------------------------------------|
A|---------------------------------------------------------------------------|
F|---------------------------------------------------------------------------|
C|--15-15h17-----------------------------------------------------------------|
G|-----------15--------------------------------------------------------------|
C|---------------------------------------------------------------------------|

This is GTR 2's part which plays while lead guitar is sustaining the 20 on the first bar.
D|---------------------------------------------------------------------------|
A|---------------------------------------------------------------------------|
F|---------------------------------------------------------------------------|
C|---------------------------------------------------------------------------|
G|--88888-88888-88888-88-3~--------------------------------------------------|
C|--88888-88888-88888-88-3~--------------------------------------------------|
PM  ....  ....  ....  ..

This is played several times during the Verses, I haven't figured out the main part yet.
D|---------------------------------------------------------------------------|
A|---------------------------------------------------------------------------|
F|--10/13\12~~~~~v-----------------------------------------------------------|
C|---------------------------------------------------------------------------|
G|---------------------------------------------------------------------------|
C|---------------------------------------------------------------------------|

This is played during the chorus I believe. You'll probably hear when you listen to the song.
D|---------------------------------------------------------------------------|
A|---------------------------------------------------------------------------|
F|--15-12-17-----------------------------------------------------------------|
C|-----------17-15-13-15-----------------------------------------------------|
G|---------------------------------------------------------------------------|
C|---------------------------------------------------------------------------|

Pre Chorus
D|---------------------------------------------------------------------------|
A|---------------------------------------------------------------------------|
F|---------------------------------------------------------------------------|
C|--55555-55555-5555-8-10-5-55555-55555-5555-5-8-5---------------------------|
G|--55555-55555-5555-8-10-5-55555-55555-5555-5-8-5---------------------------|
C|--55555-55555-5555-8-10-5-55555-55555-5555-5-8-5---------------------------|
PM  ....  ....  ....        ....  ....  ....



************************************

| /   slide up
| \   slide down
| h   hammer-on
| p   pull-off
| ~   Sustain
| +   harmonic
| x   Mute note
| b   Bend
| pb  Pre-bend
| br  Bend release
| pbr Pre-bend release
| brb Bend release bend
  v   Vibrato
************************************
http://www.myspace.com/destructionofarose
Добавлено: 04.07.2012
Другие материалы по этой песне:
  • Аккорды и текст

Страница создана 04.07.2012
http://primanota.ru/destruction-of-a-rose/under-black-flags-we-sail-chords.htm
Привет, Гость.
Предлагаем пройти революционный курс по гитаре.
Подарок от PrimaNota.Ru, забирай!