PrimaNota.ru - самый крупный в мире бесплатный архив песенных текстов, аккордов, табулатур и нот


Destroyer - English Music - аккорды и текст, видео

Регистрация Запомнить меня
Войти через:  Facebook Google Twitter Vk Yandex Mail.ru

Destroyer - English Music - аккорды и текст, видео

Печатать
Просмотров: 170
English Music
Destroyer
ubi_rex@hotmail.com

Notes on the piano part at the bottom.

F  Am  Bb  C

F        Am                 Bb       C
Soldier      you got to get out more.
         F          Am              Bb            C
There is life after property.  Everyone has got a finder's fee.
  F      Am             Bb                  C
Find          something difficult to do and do it.
F          Am             Bb         C
Write your english music, write your english music,
F          Am      Bb     C   F      Am  Bb  C
write your english music, run free.

F  Am  Bb  C

F    Am         Bb               C
She      tasted of the Christmas wines and said:
F        Am                      Bb          C
"So many things have run through me.
           F                Am            Bb            C
I know the altar boys, they just wanna do me and that's fine...
                F       Am    Bb   C
You got to have   faith     -aith     Yeah, you got to have...

F  Am  Bb  C

     Bb                       C        C                D
Once again, it's a quarter-to-three by Ambleside-by-the-Sea,
                F             Am                     Bb          Bb  repeat
and something's telling you: "Boy, it's time to take    sides!"


F                  Am                Bb                      C
write your English Music, though you know it will come to no good
     F                          Am
when brilliance has a taste for suffering,
           Bb                      C
and you're softer than the western world..."

F  Am  Bb  C repeat

---------
Notes on soloish piano thing for guitar

These are the notes the piano emphasizes with each chord
F   Am        Bb    C
----12--------------15-13-12--|
-------15-13------------------|
------------------------------|
------------------------------|
------------------------------|
------------------------------|

One time he plays this over C
-18-17-15---|
------------|
------------|
------------|
------------|
------------|

At the end he repeats this over all the chords
-12-13-12-13-|
-------------|
-------------|
-------------|
-------------|
-------------|

Here are a couple of ways to emulate the piano on guitar:
(note the * signifies the note you should accent in the chord)

You could get fancy and play it like this
F        Am        Bb     C
---------12*-------6-6\---15*13*12*-|
10-10\---13-15*13*-6-6\---13-13-13--|
10-10\---14-14-14--7-7\---12-12-12--|
10-10\-------------8-8\-------------|
8--8\--------------8-8\-------------|
-------------------6-6\-------------|

Or less fancy (an octave lower than the piano)

F        Am        Bb     C
---------0*--------6-6\---3*-1*-0*--|
10-10\---1-3*1*----6-6\---1--1--1---|
10-10\---2-2-2-----7-7\---0--0--0---|
10-10\---2-2-2-----8-8\---2--2--2---|
8--8\----0-0-0-----8-8\---3--3--3---|
-------------------6-6\-------------|

If you're fiddling with this, you can probably figure out
how to play the variations with chords.
Добавлено: 21.02.2012
Другие материалы по этой песне:
  • Аккорды и текст

Страница создана 21.02.2012
http://primanota.ru/destroyer/english-music-chords.htm
Привет, Гость.
Предлагаем пройти революционный курс по гитаре.
Подарок от PrimaNota.Ru, забирай!