PrimaNota.ru - самый крупный в мире бесплатный архив песенных текстов, аккордов, табулатур и нот


Destroyer 666 - Genesis To Genocide - текст песни, таба, видео

Регистрация Запомнить меня
Войти через:  Facebook Google Twitter Vk Yandex Mail.ru

Destroyer 666 - Genesis To Genocide - текст песни, таба, видео

Печатать
Просмотров: 45
-------------------------------------------------------------------------------
                      Deströyer 666 - Genesis To Genocide 
-------------------------------------------------------------------------------
Album: Unchain the Wolves (1997)
Tabbed by: Me
E-mail: charlie.planet@gmail.com

Tuning: Eb

After the 2-minute string intro
e|-------------------------------------------------------|
B|-------------------------------------------------------|
G|-------------------------------------------------------|
D|-------------------------------------------------------|
A|-------------------------------------------------------|
E|7'--8'-10'-8'--7'---6'---------------------------------|

e|-------------------------------------------------------|
B|-------------------------------------------------------|
G|-------------------------------------------------------|
D|---------------9----9----------------------------------|
A|7'--8'-10'-8'--7----7----------------------------------|
E|----------------000--000-------------------------------|

e|-------------------------------------------------------|
B|-------------------------------------------------------|
G|-------------------------------------------------------|
D|----8'7'5'---------------------------------------------|
A|5'--------6'-5-----------------------------------------|
E|-------------------------------------------------------|

e|--------------------------------------------------------------|
B|--------------------------------------------------------------|
G|--------------------------------------------------------------|
D|2--2-2--2-2--2222--5--5-5--5-5-5555--4--4-4--4-4-4444--5-2-5-2|
A|0--0-0--0-0--0000--3--3-3--3-3-3333--2--2-2--2-2-2222--3-0-3-0|
E|--------------------------------------------------------------|

Change the strum pattern a few times 
e|-------------------------------------------------------|
B|-------------------------------------------------------|
G|-------------------------------------------------------|
D|-------------------------------------------------------|
A|5--5--5--8-8-8--5--5--5--8-8-8--5--5--5--8-8-8--11-----|
E|3--3--3--6-6-6--3--3--3--6-6-6--3--3--3--6-6-6--9------|

e|-------------------------------------------------------|
B|-------------------------------------------------------|
G|-------------------------------------------------------|
D|-------------------------------------------------------|
A|5--5-5/8-8--5--5-5/8-8--5--5-5/8-8--8\5-5-5\3-3-3/5----|
E|3--3-3/6-6--3--3-3/6-6--3--3-3/6-6--6\3-3-3\1-1-1/3----|

Play with lots of vibrato
e|-----------------------------------------------------------------------|
B|-----------------------------------------------------------------------|
G|11-11-11h13h14-14--11-11-11h14p13----13-13----------13-13-13h14p13p11--|
D|----------------------------------11-------14p13p11--------------------|
A|-----------------------------------------------------------------------|
E|-----------------------------------------------------------------------|

It isn't played the same all the time, notable variation:
e|-----------------------------------------------------------------------|
B|-----------------------------------------------------------------------|
G|11-11-11h13h14-14--11-11-11h14p13-13----------------14-14-14h16p14p13--|
D|-------------------------------------11-11-11h13-13--------------------|
A|-----------------------------------------------------------------------|
E|-----------------------------------------------------------------------|

************************************

| /   slide up
| \   slide down
| h   hammer-on
| p   pull-off
| ~   vibrato
| +   harmonic
| x   Mute note
| b   Bend
| pb  Pre-bend
| br  Bend release
| pbr Pre-bend release
| brb Bend release bend

************************************
Добавлено: 19.05.2016
Другие материалы по этой песне:
  • Аккорды и текст

Страница создана 07.06.2012
http://primanota.ru/destroyer-666/genesis-to-genocide-chords.htm
Привет, Гость.
Предлагаем пройти революционный курс по гитаре.
Подарок от PrimaNota.Ru, забирай!