PrimaNota.ru - самый крупный в мире бесплатный архив песенных текстов, аккордов, табулатур и нот


Destroyer 666 - Cold Steel - текст песни, таба, видео

Регистрация Запомнить меня
Войти через:  Facebook Google Twitter Vk Yandex Mail.ru

Destroyer 666 - Cold Steel - текст песни, таба, видео

Печатать
Просмотров: 149
COLD STEEL - Destroyer 666

Tabed by: thesun.is.humming@gmail.com


Tuning: Eb


Fig. 1 (clean and echo-y)  (5x)
let ring
e-0-----0-----0-----0---------------|
A---0-----0-----0-----0-------0---0-|
D-----0-----0-----------0-------5---|
G-----------------3-------3/7-------|
B-----------------------------------|
E-----------------------------------|

Fig. 2 (with a shitload of distortion)  (4x)
e----------------------------------------------|
A----------------------------------------------|
D----------------------------------------------|
G-2------3------/7-7-x-x-x-7-7-x-x-x-7-7-x-x-x-|
B-2------3------/7-7-x-x-x-7-7-x-x-x-7-7-x-x-x-|
E-0------1------/5-5-x-x-x-5-5-x-x-x-5-5-x-x-x-|

Fig. 3
(the low Es are palm-muted)   (4x)
e----------------------------------------------------------------|
A----------------------------------------------------------------|
D-9---9---9---9---10--10--10--10---------------------------------|
G-9---9---9---9---10--10--10--10---7-7-x-x-x-7-7-x-x-x-7-7-x-x-x-|
B-7---7---7---7---8---8---8---8----7-7-x-x-x-7-7-x-x-x-7-7-x-x-x-|
E---0---0---0---0---0---0---0----0-5-5-x-x-x-5-5-x-x-x-5-5-x-x-x-|

Fig. 4
e-----|
A-----|
D-----|
G-5---|
B-5---|
E-3---|

Fig. 5  (4x)
e-------------------------------------------|
A-------------------------------------------|
D-------------------------------------------|
G-------------------------------------------|
B-999--------959-101010101010-999-555-------|
E-----777777--------------------------------|

Fig. 6  (2x)
                                    (last time only)
e-777000999-9tr8-5-777000999-9tr8-5-|-7~--|
A-----------------------------------|-----|
D-----------------------------------|-----|
G-----------------------------------|-----|
B-----------------------------------|-----|
E-----------------------------------|-----|

Fig. 2 (starts on last note of fig. 6)  (2x)

Fig. 3  (3x)

Fig. 7  (let chords ring)
e--------------------------------------------------|
B--------------------------------------------------|
G--------------------------------------------------|
D-5-5-----5-7-7-3-3------3-5-5-7-7-----7-5-3-3-----|
A-5-5-----5-7-7-3-3------3-5-5-7-7-----7-5-3-3-----|
E-3-3-----3-5-5-1-1------1-3-3-5-5-----5-3-1-1-----|

e-----------------------------------------------------------|
B-----------------------------------------------------------|
G-----------------------------------------------------------|
D-3-5-5-7-7-----7-7/10-10----10-5-7-7------5-7-7-3-3-----5\-|
A-3-5-5-7-7-----7-7/10-10----10-5-7-7------5-7-7-3-3-----5\-|
E-1-3-3-5-5-----5-5/8--8-----8--3-5-5------3-5-5-1-1-----3\-|


Fig. 8***  (4x) (solo starts 3rd time through)
e--------------------------------|
B--------------------------------|
G--------------------------------|
D-999------999101010101010999555-|
A-999------999101010101010999555-|
E-7770000007778-8-8-8-8-8-777333-|

Fig. 9 (under solo)
e-------------------------------------------------------------|
B-------------------------------------------------------------|
G-9999999999991010101010107777779999999999999101010101010-5-7-|
D-9999999999991010101010107777779999999999999101010101010-5-7-|
A-7777777777778-8-8-8-8-8-55555577777777777778-8-8-8-8-8--3-5-|
E-------------------------------------------------------------|

Fig. 2  (4x)

Fig. 3  (4x)

Fig. 7


***Note about fig. 8: this part is two guitars, but I condensed it into one to save 
listen to the song for the separate parts.

| /  slide up
| \  slide down
| h  hammer-on
| p  pull-off
| ~  vibrato
| +  harmonic
| x  Mute note
| tr trill
===============================================================================
Добавлено: 12.07.2012
Другие материалы по этой песне:
  • Аккорды и текст

Страница создана 12.07.2012
http://primanota.ru/destroyer-666/cold-steel-chords.htm
Привет, Гость.
Предлагаем пройти революционный курс по гитаре.
Подарок от PrimaNota.Ru, забирай!