PrimaNota.ru - самый крупный в мире бесплатный архив песенных текстов, аккордов, табулатур и нот


Destroyer 666 - Black City Black Fire - текст песни, таба, видео

Регистрация Запомнить меня
Войти через:  Facebook Google Twitter Vk Yandex Mail.ru

Destroyer 666 - Black City Black Fire - текст песни, таба, видео

Печатать
Просмотров: 175
Уроки эстрадного вокала в Санкт-Петербурге
BLACK CITY- BLACK FIRE - Destroyer 666

Tabbed by: thesun.is.humming@gmail.com

Tuning: Eb


Fig. 1  (8x)
e---------------------------------------------------|
B---------------------------------------------------|
G-----7\6-7-----7\6-7/10-----10\9-10------10\9-10\7-|
D-----7\6-7-----7\6-7/10-----10\9-10------10\9-10\7-|
A-----5\4-5-----5\4-5/8------8-\7-8-------8-\7-8-\5-|
E-000-------000----------000---------000------------|

Fig. 2  (4x)
                                  Fig. 2b (after last repeat)
e--------------------------------|---------------------|
B--------------------------------|---------------------|
G-77-----99-----1010-----10\9-10-|-10-9-10---10-9-10-6-|
D-77-----99-----1010-----10\9-10-|-10-9-10---10-9-10-6-|
A-55-----77-----8-8------8-\9-8--|-8--7-8----8--7-8--5-|
E---000-----000------000---------|---------------------|

Fig. 1  (4x)

Fig. 2  (4x)

Fig. 3
e---------------------------------|
B---------------------------------|
G-7-6-7---7-6-7---7-6-7---7-6-7---|
D-7-6-7-8-7-6-7-7-7-6-7-8-7-6-7-7-|
A-5-4-5-8-5-4-5-7-5-4-5-8-5-4-5-7-|
E-------6-------5-------6-------5-|

Fig. 4  (3x)
e------------------------------------------------------------------------|
B------------------------------------------------------------------------|
G------------------------------------------------------------------------|
D-7-------7755778877557-------7755778877-5tr7-5-------63665-3tr5-5-------|
A---00000---------------00000--------------------------------------------|
E-----------------------------------------------33333--------------33333-|

e--------------------|
B--------------------|
G--------------------|
D-63665-3tr5-2-3/8-7-|
A------------2-3/8-7-|
E------------0-1/6-5-|

Fig. 5   (4x all the way through, then the first half once)
e-------|------------|
B-------|------------|
G-------|------------|
D-2-3-8-|-7777777777-|
A-2-3-8-|-7777777777-|
E-0-1-6-|-5555555555-|

Fig. 4  (2x)

Fig. 6  (2x)
e----------------------------------------------------|
B----------------------------------------------------|
G----------------------------------------------------|
D-----8\7-8-----8\7-8/11-----11\10\11-----11\10-11\8-|
A-----8\7-8-----8\7-8/11-----11\10\11-----11\10-11\8-|
E-000-6\5-6-000-6\5-6/9--000-9-\8--9--000-9-\8--9-\6-|

Fig. 2  (4x)

Fig. 2b

Fig. 1  (2x)

Fig. 2b

Fig. 1  (2x)

Fig. 7  (2x)
e---------------------------------|
B---------------------------------|
G-----77-----99-----1010-----1111-|
D-----77-----99-----1010-----1111-|
A-----55-----77-----8-8------9-9--|
E-000----000----000-----000-------|

Solo (not exactly right, but it sounds good)
e-----------------------------------------------------------------------------|
B---------------------------------------------------------------9tr12--10tr13-|
G--------------------------------9tr12--10tr13--11tr14--12tr15----------------|
D-9tr12--10tr13--11tr14--12tr15-----------------------------------------------|
A-----------------------------------------------------------------------------|
E-----------------------------------------------------------------------------|

e--------------------------------15tr18--16tr19--23-----19b23rb23rb23-----|
B-11tr14--12tr15--13tr16--14tr17------------------------------------------|
G-------------------------------------------------------------------------|
D-------------------------------------------------------------------------|
A-------------------------------------------------------------------------|
E-------------------------------------------------------------------------|

| /  slide up
| \  slide down
| tr trill
| b  bend to...
| r  release
===============================================================================
Добавлено: 28.02.2012
Другие материалы по этой песне:

Страница создана 28.02.2012
http://primanota.ru/destroyer-666/black-city-black-fire-chords.htm
Привет, Гость.
Предлагаем пройти революционный курс по гитаре.
Подарок от PrimaNota.Ru, забирай!