PrimaNota.ru - самый крупный в мире бесплатный архив песенных текстов, аккордов, табулатур и нот


Destroy The Runner - Resolution - таба, видео

Регистрация Запомнить меня
Войти через:  Facebook Google Twitter Vk Yandex Mail.ru

Destroy The Runner - Resolution - таба, видео

Печатать
Просмотров: 207
"Resolution" by Destroy The Runner
Tabbed by Cody Bentley

This song is just an instrumental outro. There are only 2 guitarists in the band, but 
song has 3 different guitar tracks.

Tuning CGCFAd (Drop D + one step down)

The song starts with a fading out guitar part from another song and then fades in.

|----------------|
|----------------|
|----------------|
|-5--------------|
|-5--------------|
|-5-fades out...-|

First part

Gtr 1 - Rhythm
|---------------------------------------------|
|---------------------------------------------|
|---------------------------------------------|
|-5----------3----------1----------3----------|
|-5----------3----------1----------3----------|
|-5-(PM 16x)-3-(PM 16x)-1-(PM 16x)-3-(PM 16x)-|

Gtr 2 - Lead
|----------------------------------|
|-------------------18/20----------|
|-19-------19-15/17-------17\15----|
|-------------------------------17-|
|----------------------------------|
|----------------------------------|

Gtr 3 - Fill
|----------------------------------|
|----------------------------------|
|-19-15/17----------14-------------|
|----------12/15h17----15----------|
|----------------------------------|
|----------------------------------|

Second part

Gtr 1 - Rhythm
|---------------------------------------------|
|---------------------------------------------|
|---------------------------------------------|
|-5----------3----------1----------3----------|
|-5----------3----------1----------3----------|
|-5----------3----------1----------3----------|

Gtr 2 - Lead
|-----------------------------------------|
|-----------------------------------------|
|-19p0-15p0-19p0-15p0-19p0-15p0-19p0-15p0-|
|-----------------------------------------|
|-----------------------------------------|
|-----------------------------------------|

|-----------------------------------------|
|-----------------------------------------|
|-19p0-14p0-19p0-14p0-19p0-14p0-19p0-14p0-|
|-----------------------------------------|
|-----------------------------------------|
|-----------------------------------------|

|-----------------------------------------|
|-----------------------------------------|
|-19p0-15p0-19p0-15p0-19p0-15p0-19p0-15p0-|
|-----------------------------------------|
|-----------------------------------------|
|-----------------------------------------|

|-----------------------------------------|
|-----------------------------------------|
|-19--17--19--17-19-15/17----------14-----|
|-------------------------12/15h17----15--|
|-----------------------------------------|
|-----------------------------------------|

Gtr 3 - Fill
|-------------------------------------------|
|-------------------------------------------|
|-15--------14--------15------17--14--------|
|--x---------x---------x-------x---x--------|
|-13--------12--------13------15--12--------|
|-------------------------------------------|
Добавлено: 03.04.2012
Другие материалы по этой песне:

Страница создана 03.04.2012
http://primanota.ru/destroy-the-runner/resolution-chords.htm
Привет, Гость.
Предлагаем пройти революционный курс по гитаре.
Подарок от PrimaNota.Ru, забирай!