PrimaNota.ru - самый крупный в мире бесплатный архив песенных текстов, аккордов, табулатур и нот


Destroy The Runner - Mr And Mrs Cuckoldom - таба, видео

Регистрация Запомнить меня
Войти через:  Facebook Google Twitter Vk Yandex Mail.ru

Destroy The Runner - Mr And Mrs Cuckoldom - таба, видео

Печатать
Просмотров: 779
Song:Mr. and Mrs. Cuckoldom
Band:Destroy the Runner
Album:I, Lucifer(2008)
Tabbed By: FroY7seven7
Hey, this is my first tab ever!
This is the new single from Destroy the Runner off of their new album "I, Lucifer", "Mr 
Mrs Cuckoldom".Its an awesome song Chad Ackerman!! ENJOY!
This song is in Drop C Tuning!!


(Intro/Verse)
/------------------------------------------------------------------------\
/------------------------------------------------------------------------\
/---------10-10-10-10---------------------10-10-10-10--------------------\
/-00000000-------------10-10-10-10--00000000-------------10-10-10-10-----\
/-00000000--------------------------00000000-----------------------------\
/-00000000--------------------------00000000-----------------------------\
 "Cut out a heart.........."      "And ran away with you....."          (x2)

(Pre-chorus)
/------------------------------------------------------------------------\
/------------------------------------------------------------------------\
/------------------------------------------------------------------------\
/-8(x16)----7(x8)----5(x4)----7(x2)--------------------------------------\
/-8(x16)----7(x8)----5(x4)----7(x2)--------------------------------------\
/-8(x16)----7(x8)----5(x4)----7(x2)--------------------------------------\
"Leaaave.." "Grieeeeeeeeeeeeve"

(Chorus)
/------------------------------------------------------------------------\
/------------------------------------------------------------------------\
/------------------------------------------------------------------------\
/-00000-333333-3h55555-444444--------------------------------------------\
/-00000-111111-3h55555-444444--------------------------------------------\
/-00000--------3h55555-444444--------------------------------------------\
 "Lie to meeee......"                                                 (x4)

(Pre-verse)
/------------------------------------------------------------------------\
/------------------------------------------------------------------------\
/------------------------------------------------------------------------\
/-0~---------------------7~----------------------------------------------\
/-0~---------------------5~----------------------------------------------\
/-0~---------------------------------------------------------------------\


 (REPEAT VERSE)
 (PRE-CHORUS) x1

    (CHORUS)

(Bridge)
/------------------------------------------------------------------------\
/------------------------------------------------------------------------\
/------------------------------------------------------------------------\
/-0-0000---3h55-0--------8h10--10-9-12-10-8(x9)--10(x9)--12--------------\
/-0-0000---3h55-0--------8h10--8--7-10-8--8(x9)--10(x9)--12--------------\
/-0-0000---3h55-0--------8h10-------------8(x9)--10(x9)--12--------------\

/---------------------------\  /------------------------------\
/---------------------------\  /------------------------------\
/---------------------------\  /------------------------------\
/-0(x5)-3(x8)-3h55555-3(x8)-\  /-3h55555-3(x8)-3(x5)-5(x8)----\
/-0(x5)-1(x8)-3h55555-3(x8)-\  /-3h55555-3(x8)-1(x5)-3(x8)----\


(CHORUS)

(BRIDGE PT1)
/----------------\   /-10(x4)-9(x4)----\-\ 4th string
/-8(X16)-10(x16)-\   /-8(x4)--7(x4)----\-\ 5th string
/-8(X16)-10(x16)-------------------------\
/-8(X16)-10(x16)-------------------------\


(Outro)
/---------------------------------------------------------\
/---------------------------------------------------------\
/---------------------------------------------------------\
/-12(x16)-10(x16)-10(x16)-8(x16)-10(x4)-\       /-12~~~---\
/-12(x16)-10(x16)-8(x16)--8(x16)-10(x4)-\       /-12~~~---\
/-12(x16)-10(x16)---------8(x16)-10(x4)-\(x2)   /-12~~~---\


(Solo in the Outro)
/--------------------\  /----------------------\
/--------------------\  /----------------------\
/-14-12--12-14-17-14-\  /--17-14(x4)-----------\
/------15------------\  /-----------17-15(x4---\
/--------------------\  /----------------------\
/--------------------\x3/----------------------\   repeat both once!

Well thats my best tab for this Song, I seriously cant wait for "I, Lucifer"!! This song 
 any messages add me at msn or email me!!
chorus_of_death15@hotmail.com!

The New DTR Rules!!!
Добавлено: 10.05.2012
Другие материалы по этой песне:
  • Аккорды и текст

Страница создана 10.05.2012
http://primanota.ru/destroy-the-runner/mr-and-mrs-cuckoldom-chords.htm
Привет, Гость.
Предлагаем пройти революционный курс по гитаре.
Подарок от PrimaNota.Ru, забирай!