PrimaNota.ru - самый крупный в мире бесплатный архив песенных текстов, аккордов, табулатур и нот


Destroy Rebuild Until God Shows - The Only Thing You Talk About - таба, бас-таба, видео

Регистрация Запомнить меня
Войти через:  Facebook Google Twitter Vk Yandex Mail.ru

Destroy Rebuild Until God Shows - The Only Thing You Talk About - таба, бас-таба, видео

Печатать
Просмотров: 162
-------------------------------------------------------------------------------
                  The Only Thing You Talk About - D.R.U.G.S
-------------------------------------------------------------------------------
Tabbed by: Ryan Bradley
Email: ryanbradley4u@yahoo.com
If you find anything wrong, feel free to email me.
Video: http://www.youtube.com/watch?v=fo9sohI6EsM

Tuning:Drop Db: (Db,Ab,Db,Gb,Bb,Db)

Intro (0:10)  x2
Db|-----|---------------------------------------------------------------------|
Bb|-----|---------------------------------------------------------------------|
Gb|-----|---------------------------------------------------------------------|
Db|-\12-|-0-0-0--0-0-0--0--0-0--0-0--0-0--------------------------------------|
Ab|-\12-|-0-0-0--0-0-0--0--0-0--0-0--0-0----8p5h7p5h8p5h7p5h7h8p7p5-----------|
Db|-\12-|-0-0-0--0-0-0--0--0-0--0-0--0-0--------------------------------------|
          x x x  x x x  x  x    x    x x

Db|---------------------------------------------------------------------------|
Bb|---------------------------------------10-----10---------------------------|
Gb|---------------------------------------14-----14---------------------------|
Db|-0-0-0--0-0-0--0--0-0--0-0--0-0--0-0------0-0------------------------------|
Ab|-0-0-0--0-0-0--0--0-0--0-0--0-0--0-0------0-0------------------------------|
Db|-0-0-0--0-0-0--0--0-0--0-0--0-0--0-0------0-0------------------------------|
    x x x  x x x  x  x x  x x  x x  x x      x x

Verse 1 (0:25)
Db|---------------------------------------------------------------------------|
Bb|---------------------------------------------------------------------------|
Gb|---------------------------------------------------------------------------|
Db|-0-------8------5----------------------------------------------------------|
Ab|-0(x16)--8(x8)--5(x8)------------------------------------------------------|
Db|-0-------8------5----------------------------------------------------------|  x2
    x       x      x
Db|---------------------------------------------------------------------------|
Bb|---------------------------------------------------------------------------|
Gb|---------------------------------------------------------------------------|
Db|-0-------5------8----------------------------------------------------------|
Ab|-0(x16)--5(x8)--8(x14)-----------------------------------------------------|
Db|-0-------5------8----------------------------------------------------------|  x2
    x       x      x

Chorus 1 (0:55)
Db|---------------------------------------------------------------------------|
Bb|---------------------------------------------------------------------------|
Gb|-7------5------3-----------------------------------------------------------|
Db|-x-(x8)-x-(x8)-x-(x12)--8--7--5--3--0--------------------------------------|
Ab|-5------3------1--------8--7--5--3--0--------------------------------------|
Db|------------------------8--7--5--3--0--------------------------------------|

Db|---------------------------------------------------------------------------|
Bb|---------------------------------------------------------------------------|
Gb|---------------------------------------------------------------------------|
Db|-0-------5-------8---------------------------------------------------------|
Ab|-0-(x8)--5-(x8)--8-(x9)----------------------------------------------------|
Db|-0-------5-------8---------------------------------------------------------|

[Repeat Intro x1 ] (1:10)

[Repeat Verse 1 ] (1:17)


Chorus 2 (1:39) x2
Db|---------------------------------------------------------------------------|
Bb|---------------------------------------------------------------------------|
Gb|-7------5------3-----------------------------------------------------------|
Db|-x-(x8)-x-(x8)-x-(x12)--8--7--5--3--0--------------------------------------|
Ab|-5------3------1--------8--7--5--3--0--------------------------------------|
Db|------------------------8--7--5--3--0--------------------------------------|

Db|---------------------------------------------------|-----------------------|
Bb|---------------------------------------------------|-----------------------|
Gb|---------------------------------------------------|-----------------------|
Db|-0-------5-------8---------------------------------|--8--7--5--3--0--------|
Ab|-0-(x8)--5-(x8)--8-(x9)----------------------------|--8--7--5--3--0--------|
Db|-0-------5-------8---------------------------------|--8--7--5--3--0--------|
                                                         (second time only)


Post Chorus (2:08)
Db|---------------------------------------------------------------------------|
Bb|---------------------------------------------------------------------------|
Gb|---------------------------------------------------------------------------|
Db|--0------0------0----------------------------------------------------------|
Ab|--0------0------0----------------------------------------------------------|
Db|--0------0------0----------------------------------------------------------|

Breakdown (2:25)
Db|---------------------------------------------------------------------------|
Bb|---------------------------------------------------------------------------|
Gb|-----------------------------3---3-----------------------------------------|
Db|--0---0-0-0-0-0-0-0---0-0--0-x-0-x-----------------------------------------|
Ab|--0---0-0-0-0-0-0-0---0-0--0-1-0-1-----------------------------------------|
Db|--0---0-0-0-0-0-0-0---0-0--0---0-------------------------------------------| x2
         x x x x x x x        x   x

Db|---------------------------------------------------------------------------|
Bb|---------------------------------------------------------------------------|
Gb|-------------------------------------3-3-3-3-3-3-3-3-3---------------------|
Db|--0---0-0-0-0-0-0-0--0-0-0-0-0-0-0-0-x-x-x-x-x-x-x-x-x---------------------|
Ab|--0---0-0-0-0-0-0-0--0-0-0-0-0-0-0-0-1-1-1-1-1-1-1-1-1---------------------|
Db|--0---0-0-0-0-0-0-0--0-0-0-0-0-0-0-0---------------------------------------|
         x x x x x x    x x x x x x x x x x x x x x x x x

Db|---------------------------------------------------------------------------|
Bb|---------------------------------------------------------------------------|
Gb|-----------------------------3---3-----------------------------------------|
Db|--0---0-0-0-0-0-0-0---0-0--0-x-0-x--0--------------------------------------|
Ab|--0---0-0-0-0-0-0-0---0-0--0-1-0-1--0--------------------------------------|
Db|--0---0-0-0-0-0-0-0---0-0--0---0----0--------------------------------------|
         x x x x x x x        x   x

Chorus 3 (2:43)
Db|---------------------------------------------------------------------------|
Bb|---------------------------------------------------------------------------|
Gb|--3------------------------------------------------------------------------|
Db|--x-(x12)--8--7--5--3--0---------------------------------------------------|
Ab|--1--------8--7--5--3--0---------------------------------------------------|
Db|-----------8--7--5--3--0---------------------------------------------------|

Db|---------------------------------------------------------------------------|
Bb|---------------------------------------------------------------------------|
Gb|---------------------------------------------------------------------------|
Db|-0-------5-------8---------------------------------------------------------|
Ab|-0-(x8)--5-(x8)--8-(x14)---------------------------------------------------|
Db|-0-------5-------8---------------------------------------------------------|

Db|---------------------------------------------------------------------------|
Bb|---------------------------------------------------------------------------|
Gb|-7------5------3-----------------------------------------------------------|
Db|-x-(x8)-x-(x8)-x-(x12)--8--7--5--3--0--------------------------------------|
Ab|-5------3------1--------8--7--5--3--0--------------------------------------|
Db|------------------------8--7--5--3--0--------------------------------------|

Db|---------------------------------------------------------------------------|
Bb|---------------------------------------------------------------------------|
Gb|-7------5------3-----------------------------------------------------------|
Db|-x-(x8)-x-(x8)-x-(x12)-----------------------------------------------------|
Ab|-5------3------1-----------------------------------------------------------|
Db|---------------------------------------------------------------------------|

Outro (3:08)
Db|---------------------------------------------------------------------------|
Bb|---------------------------------------------------------------------------|
Gb|-----------------------------3---3-----------------------------------------|
Db|--0---0-0-0-0-0-0-0---0-0--0-x-0-x-----------------------------------------|
Ab|--0---0-0-0-0-0-0-0---0-0--0-1-0-1-----------------------------------------|
Db|--0---0-0-0-0-0-0-0---0-0--0---0-------------------------------------------| x2
         x x x x x x x        x   x

Db|---------------------------------------------------------------------------|
Bb|---------------------------------------------------------------------------|
Gb|-------------------------------------3-3-3-3-3-3-3-3-3---------------------|
Db|--0---0-0-0-0-0-0-0--0-0-0-0-0-0-0-0-x-x-x-x-x-x-x-x-x---------------------|
Ab|--0---0-0-0-0-0-0-0--0-0-0-0-0-0-0-0-1-1-1-1-1-1-1-1-1---------------------|
Db|--0---0-0-0-0-0-0-0--0-0-0-0-0-0-0-0---------------------------------------|
         x x x x x x    x x x x x x x x x x x x x x x x x

Db|---------------------------------------------------------------------------|
Bb|---------------------------------------------------------------------------|
Gb|-----------------------------3---3-----------------------------------------|
Db|--0---0-0-0-0-0-0-0---0-0--0-x-0-x-----------------------------------------|
Ab|--0---0-0-0-0-0-0-0---0-0--0-1-0-1-----------------------------------------|
Db|--0---0-0-0-0-0-0-0---0-0--0---0-------------------------------------------|
         x x x x x x x        x   x

************************************

| /   slide up
| \   slide down
| h   hammer-on
| p   pull-off
| ~   vibrato
| +   harmonic
| x   Mute note
| b   Bend
| pb  Pre-bend
| br  Bend release
| pbr Pre-bend release
| brb Bend release bend

************************************
Добавлено: 15.03.2012
Вам также может быть интересно:
Другие материалы по этой песне:
  • Аккорды и текст

Страница создана 15.03.2012
http://primanota.ru/destroy-rebuild-until-god-shows/the-only-thing-you-talk-about-chords.htm
Привет, Гость.
Предлагаем пройти революционный курс по гитаре.
Подарок от PrimaNota.Ru, забирай!