PrimaNota.ru - самый крупный в мире бесплатный архив песенных текстов, аккордов, табулатур и нот


Destroy Rebuild Until God Shows - Sex Life - бас-таба, видео

Регистрация Запомнить меня
Войти через:  Facebook Google Twitter Vk Yandex Mail.ru

Destroy Rebuild Until God Shows - Sex Life - бас-таба, видео

Печатать
Просмотров: 137
Two people requested tabs for this on my bass cover of this song so I'm posting them up here.
This song was not too easy to figure out and I'm still not 100% sure about these tabs.
The bassist of this band plays a 5-string bass but I'm just going to tab it out for 4 
string since most people don't have 5 strings.
Tuning for a 5 string is A D G C F but for a 4 string is dropped C
I play this song a little differently in my video but the tab is more accurate.

Check out my bass cover of this song!

http://www.youtube.com/watch?v=XwhF4-QUPpc

Check out my channel for more bass covers!

http://www.youtube.com/user/chrisistheazn

Intro/Riff

Bass comes in at 0:22

F|---------------------------------------------------------------------|
C|-7-----7-------------------------6-----6-----6---6---9---10---9------|
G|---0-0---0-0-8p0-7p0-2p0-3h5-3h5---0-0---0-0---0---0---0----0---0----| x2
C|---------------------------------------------------------------------|

Verse 1

F|---------------------------------------------------------------------|
C|---------------------------------------------------------------------|
G|---------------------------------------------------------------------|
C|-7-------3-------7-------3-----0-------------------------------------|

F|---------------------------------------------------------------------|
C|---------------------------------------------------------------------|
G|-3p0-3p0-3p0-3p0-3p0-3p0-3p0-3p0-------------------------------------|
C|---------------------------------3333333333333333--------------------|

F|---------------------------------------------------------------------|
C|---------------------------------------------------------------------|
G|-3p0-3p0-3p0-3p0-3p0-3p0-3p0-3p0-------------------------------------|
C|---------------------------------333333330---5-----------------------|

Pre-Chorus 1

F|------------------|
C|------------------|
G|-3-------2--------|
C|------------------|

Chorus 1

F|---------------------------------------------------------------------|
C|---------------------------------------------------------------------|
G|-00000000000000007777555533332222------------------------------------|
C|---------------------------------33333333333377772222222222222222----|

F|---------------------------------------------------------------------|
C|---------------------------------------------------------------------|
G|-00000000000000007777555533332222------------------------------------|
C|---------------------------------3333333333332222555555556\----------|

After-Chorus/Riff

F|---------------------------------------------------------------------|
C|-7-----7-------------------------6-----6-----6---6---9---10---9------|
G|---0-0---0-0-8p0-7p0-2p0-3h5-3h5---0-0---0-0---0---0---0----0---0----|
C|---------------------------------------------------------------------|

Verse 2

F|---------------------------------------------------------------------|
C|---------------------------------------------------------------------|
G|---------------------------------------------------------------------|
C|-7-------3-------7-------3-----0-------------------------------------|

F|---------------------------------------------------------------------|
C|---------------------------------------------------------------------|
G|---------------------------------------------------------------------|
C|-7---7---7---7---3---3---3---3---7---7---7---7---3---3---0---5-------|

Pre-Chorus 2

F|------------------|
C|------------------|
G|-3-------2--------|
C|------------------|

Chorus 2

F|---------------------------------------------------------------------|
C|---------------------------------------------------------------------|
G|-00000000000000007777555533332222------------------------------------|
C|---------------------------------33333333333377772222222222222222----|

F|---------------------------------------------------------------------|
C|---------------------------------------------------------------------|
G|-00000000000000007777555533332222------------------------------------|
C|---------------------------------3333333333332222555555556\----------|

Bridge

F|-------------------------------------------------------|
C|-------------------------------------------------------|
G|-------------------------------------5-----------------|
C|-7-------7-------7-------3---7---3-------3-------------|

F|---------|
C|---------|
G|-0000----| x14
C|---------|

Chorus 3

F|---------------------------------------------------------------------|
C|---------------------------------------------------------------------|
G|-00000000000000007777555533332222------------------------------------|
C|---------------------------------33333333333377772222222222222222----|

F|---------------------------------------------------------------------|
C|---------------------------------------------------------------------|
G|-00000000000000007777555533332222------------------------------------|
C|---------------------------------3333333333332222555555556\----------|

Outro/Riff

F|---------------------------------------------------------------------|
C|-7-----7-------------------------6-----6-----6---6---9---10---9------|
G|---0-0---0-0-8p0-7p0-2p0-3h5-3h5---0-0---0-0---0---0---0----0---0----| x4
C|---------------------------------------------------------------------|

| /  slide up
| \  slide down
| h  hammer-on
| p  pull-off
| ~  vibrato
| +  harmonic
| x  Mute note
Добавлено: 05.05.2012
Другие материалы по этой песне:
  • Аккорды и текст

Страница создана 05.05.2012
http://primanota.ru/destroy-rebuild-until-god-shows/sex-life-chords.htm
Привет, Гость.
Предлагаем пройти революционный курс по гитаре.
Подарок от PrimaNota.Ru, забирай!