PrimaNota.ru - самый крупный в мире бесплатный архив песенных текстов, аккордов, табулатур и нот


Destine - California Summer - текст песни, бас-таба, видео

Регистрация Запомнить меня
Войти через:  Facebook Google Twitter Vk Yandex Mail.ru

Destine - California Summer - текст песни, бас-таба, видео

Печатать
Просмотров: 214
---------------------------------------------------------------------------
        	       CALIFORNIA SUMMER – Destine
---------------------------------------------------------------------------

Artist: Destine
Album: Lightspeed

Tabbed By : Hurm

Tuning: standard 4-string (EADG)
This tab is rhythmic!

Intro
G|------||------------------------|
D|------||------------------------|
A|------||------444555--555----5~-|
E|------||-555-------------2~4~---|

Verse
G|-6-6-6-6-7-7-7-7------------------6-6-6-6-7-7-7-7-----------------|
D|-----------------9-9-9-9-9-9-9-9------------------9-9-9-9-7~--6~--|
A|------------------------------------------------------------------|
E|------------------------------------------------------------------|

G|---------------------------------------------------------------|
D|---------------------------------------------------------7~6~\-|
A|-444-----555-555-777-----777-777-444-----555-555-777-----------|
E|---------------------------------------------------------5~4~\-|

Pre-chorus
G|------------------------------------------------------------------|
D|------------------------------------------------------------------|
A|-----------------5555555555555555----------------555555559\559\55-|
E|-0000000022222222----------------0000000022222222-----------------|

Chorus
G|---------------------------------|
D|---------------------------------|
A|---------5-5-5-5-----------------| 2x
E|-2-2-2-2---------0-0-0-0-0-0-0-0-|

G|---------------------------------------------------------|
D|---------------------------------------------------------|
A|-4-4-4-4-5-5-5-5-----------7-------------5-5-5-5---------|
E|-----------------0-0-0-0-5---4-4-2-2-2-2---------0-0-0-0-|

Post-chorus
G|------------------------------------|
D|------------------------------------|
A|-------445555--555------445555--555-|
E|-5-55--------------555--------------|

Verse
G|------------------------------------------------------------------|
D|------------------------------------------------------------------|
A|-4-4-4-4-5-5-5-5-7-7-7-7-7-7-7-7-4-4-4-4-5-5-5-5-7-7-7-7----------|
E|---------------------------------------------------------5~--4~---|

G|------------------------------------------------------------------|
D|------------------------------------------------------------------|
A|-4444444455555555777777777777777744444444555555557777777755554444-|
E|------------------------------------------------------------------|

Pre-chorus
G|----------------------------------|
D|----------------------------------|
A|-----------------5~------9\559\55-|
E|-0~------2~-----------------------|

Chorus
G|---------------------------------|
D|---------------------------------|
A|---------5-5-5-5-----------------| 2x
E|-2-2-2-2---------0-0-0-0-0-0-0-0-|

G|------------------------------------------------------------------|
D|------------------------------------------------------------------|
A|-4-4-4-4-5-5-5-5-----------7---6---------5-5-5-5---------7\-------|
E|-----------------0-0-0-0-5---4---2-2-2-2---------0-0-0-0-----0~---|

Bridge
G|--------------------------------(4-4-4-4-4-4-4-4-7-7-7-7-7-7-7-7-|
D|-----------------------------------------------------------------|
A|-4~--------------5~----------------------------------------------|
E|-----------------------------------------------------------------|
                                  (  ^actually played by guitar^  )

G|-----------------------------------------------------------------|
D|-----------------------------------------------------------------|
A|-----------------------------------------------------------------|
E|-----------------------------------------------------------------|

G|-----------------7~----------------------------------------------|
D|-4~--------------------------------------------------------------|
A|-------------------------------------------------5~---------4444-|
E|---------------------------------2~------------------------------|

G|------------------------------------------------------------------|
D|------------------------------------------------------------------|
A|-5555555555555555777777777777999955555555555555557777777777777777-|
E|------------------------------------------------------------------|

Chorus
G|---------------------------------|
D|---------------------------------|
A|---------5-5-5-5-----------------| 2x
E|-2-2-2-2---------0-0-0-0-0-0-0-0-|

G|------------------------------------------------------------------|
D|------------------------------------------------------------------|
A|-4444444455555555------------------------55555555-----------------|
E|-----------------000000005555555422222222--------0000000000000000-|

Outro
G|------------------------------------------------------------------|
D|------------------------------------------------------------------|
A|-44444444444444445555555555555555----------------5555555555555555-| 2x
E|---------------------------------2222222222222222-----------------|

G|---------------------------------------------------------------------|
D|---------------------------------------------------------------------|
A|-44444444444444445555555555555555----------------55555555555544445~~-|
E|---------------------------------2222222222222222--------------------|

| \  slide down
| ~  let ring

===========================================================================
Добавлено: 20.07.2012
Другие материалы по этой песне:
  • Аккорды и текст

Страница создана 20.07.2012
http://primanota.ru/destine/california-summer-chords.htm
Привет, Гость.
Предлагаем пройти революционный курс по гитаре.
Подарок от PrimaNota.Ru, забирай!