PrimaNota.ru - самый крупный в мире бесплатный архив песенных текстов, аккордов, табулатур и нот


Despondency - God On Acid - таба, видео

Регистрация Запомнить меня
Войти через:  Facebook Google Twitter Vk Yandex Mail.ru

Despondency - God On Acid - таба, видео

Печатать
Просмотров: 87
--- DESPONDENCY ---
                                "God On Acid"
                     From album: "God On Acid"
                     

                            TABULATURE LEGEND:
                   " - tremolo             h - hammer on           
                   ~ - vibrato             \ - slide down
                   p - pull off            / - slide down
                  tr - trill               ^ - pinch harmonics     
                   = - sustained note      b - bend string         
                p.m. - palm muting         t - tapping

TUNING: C [C, F, Bb, eb, g, c]

[Riff 1]
-|--------------------------|--------------------------|
-|--------------------------|--------------------------|
-|--------------------------|--------------------------|
-|--------------------------|--------------------------|
-|-------------3-4-3-4------|-------------3-4-3-4------|
-|-5"-8"-4"-6"-1-2-1-2-[x4]-|-5"-8"-4"-6"-1-2-1-2-[x2]-|
 |             . . . .      |             . . . .      |
-|--------------------------|--------------------------|
-|--------------------------|--------------------------|
-|--------------------------|--------------------------|
-|--------------------------|--------------------------|
-|-------------3-4-3-4------|-3"-6"-2"-4"-3-4-3-4------|
-|-5"-8"-4"-6"-1-2-1-2-[x4]-|-------------1-2-1-2-[x2]-|
               . . . .                    . . . .

[Riff 2]
-|-----------------------|------------------------------|
-|-----------------------|------------------------------|
-|-----------------------|------------------------------|
-|-----------------------|------------------------------|
-|-7-10-6-6-3-4-3-4------|-7--10-6--6--3--4--3--4-------|
-|-5-8--4-6-1-2-1-2-[x2]-|-5--8--4--6--1--2--1--2--[x4]-|
   . .  . . . . . .        .  .  .  .  .  .  .  .

[Riff 3 (x4)]
-|------------------|-[ending 1, 3]--|-[ending 2, 4]----|
-|------------------|----------------|------------------|
-|------------------|----------------|------------------|
-|--------------2-1-|----------------|------------------|
-|-44-3-2-3-3-4-2-1-|-44-3-2-3-5--3--|-44-3-2-3---5-6-3-|
-|-22-1-0-1-3-4-----|-22-1-0-1-5--3--|-22-1-0-1---5-6-3-|
   .. . . . . . . .   .. . . . .  .    .. . . .   . . .

[Riff 4 (x4)]
-|-------------------|-[ending 1, 3]-----|-[ending 2]---------|
-|-------------------|-------------------|--------------------|
-|-------------------|-------------------|--------------------|
-|-------------------|----------6"..-----|-------------6------|
-|-55445544---6"-----|-55445544-----5"4"-|------6-3344------7-|
-|-33223322-3"--5"4"-|-33223322----------|-4455----------66---|
 | ........          | ........          | ....   ....   ..   |
-|-------------------|-------------------|--------------------|
-|-------------------|-------------------|--------------------|
-|-------------------|-------------------|--------------------|
-|-------------------|-------------------|-------------6------|
-|-55445544---6"-----|-55445544-8"..-----|------6-3344------7-|
-|-33223322-3"--5"4"-|-33223322-----7"6"-|-4455----------66---|
   ........            ........          ....   ....   ..

 -[ending 4]---------|
 --------------------|
 --------------------|
 -------------6------|
 ------6-3344------7-|
 -4455----------66---|
                     |
 --------------------|
 --------------------|
 -------------4------|
 ------4-1122------5-|
 -2233----------44---|
 --------------------|


[Riff 5 (x3)]                        [Outro]
-|-----------------|-----------------||-----------------|
-|-----------------|-----------------||-----------------|
-|-----------------|-----------------||-----------------|
-|---------5-------|---------5-------||---------5-------|
-|-2-3-4-3-3-5-4-6-|-2-3-4-3-3-5/6\4-||-2-3-4-3-3-5-4-6-|
-|-0-1-2-1---3-2-4-|-0-1-2-1-3-3/4\2-||-0-1-2-1---3-2-4-|
   . . . .   . . .   . . . .            . . . .   . . .

[RIFF 3 (x2)] [RIFF 4 (x4)] [RIFF 5 (x4)]

[Riff 6a]           [Riff 6b]
-|------------------|---------------|
-|------------------|---------------|
-|------------------|---------------|
-|------------------|---------------|
-|--------7"..------|---------5-2-4-|
-|-432123------6543-|-4321230-5-2-4-|
   ......      ....   ....... . . .

[RIFF 6b (x2)] [RIFF 6a] [RIFF 6b] [RIFF 6a] [RIFF 6b]

[Riff 7 (x2) + (x4)]
-|-----------------|
-|-----------------|
-|-----------------|
-|-----------------|
-|-1---3---2---5---|
-|-1---3---2---5---|
   .   .   .   .

[Riff 8 (x2)]
-|------------------|
-|------------------|
-|------------------|
-|------------------|
-|-7/10-6/8-3-4-3-4-|
-|-5/8--4/6-1-2-1-2-|
            . . . .

[RIFF 2 /second bar only/ (x4)] [RIFF 3 (x2)]
[RIFF 6a] [RIFF 6b] [RIFF 6b (x2)] [RIFF 6a] [RIFF 6b] [RIFF 6a] [RIFF 6b]
[RIFF 7 (x2) + (x4)]

[Outro 2]
-|--------------|
-|--------------|
-|--------------|
-|--------------|
-|--------------|
-|-432123432123-|
   ............

[RIFF 6a] [RIFF 6b] [RIFF 6a] [RIFF 6b] [RIFF 6b (x2)]

END OF SONG
Добавлено: 28.10.2013
Вам также может быть интересно:
Другие материалы по этой песне:

Страница создана 28.10.2013
http://primanota.ru/despondency/god-on-acid-chords.htm
Привет, Гость.
Предлагаем пройти революционный курс по гитаре.
Подарок от PrimaNota.Ru, забирай!