PrimaNota.ru - самый крупный в мире бесплатный архив песенных текстов, аккордов, табулатур и нот


Despondency - Embodiment Of A Failed Brood - таба, видео

Регистрация Запомнить меня
Войти через:  Facebook Google Twitter Vk Yandex Mail.ru

Despondency - Embodiment Of A Failed Brood - таба, видео

Печатать
Просмотров: 87
--- DESPONDENCY ---
                      "Embodiment Of A Failed Brood"
                     From album: "God On Acid"


                            TABULATURE LEGEND:
                   " - tremolo             h - hammer on           
                   ~ - vibrato             \ - slide down
                   p - pull off            / - slide down
                  tr - trill               ^ - pinch harmonics     
                   = - sustained note      b - bend string         
                p.m. - palm muting         t - tapping

TUNING: C [C, F, Bb, eb, g, c]

[Riff 1 (x8)]        [Riff 2 (x2)]                           
-|------------------|----------------------------------------|
-|------------------|----------------------------------------|
-|------------------|----------------------------------------|
-|-------33---------|----------------------------------------|
-|-3-6-4-11-4-6-4-7-|-5-6-----------4-3------5-6---5-6-5-4-5-|
-|-1-4-2----2-4-2-5-|-3-4-9987-8876-2-1-[x3]-3-4---3-4-3-2-3-|
 | . . . .. . . . . | . . .... .... . .      . .   . . . . . |
-|------------------|----------------------------------------|
-|------------------|----------------------------------------|
-|------------------|----------------------------------------|
-|------------------|----------------------------------------|
-|-3-6-4-88-4-6-4-7-|-5-6-7765-6654-4-3------5-6---5-6-5-4-5-|
-|-1-4-2-66-2-4-2-5-|-3-4-----------2-1-[x3]-3-4---3-4-3-2-3-|
   . . . .. . . . .   . . .... .... . .      . .   . . . . .

[RIFF 1 (x5)]

[Outro]    [Riff 3a (x2)]             [Riff 3b (x2)]
-|---------|--------------------------|-------------------------|
-|---------|--------------------------|-------------------------|
-|---------|--------------------------|-------------------------|
-|---------|--------------------------|-------------------------|
-|-6-7-6-3-|-4--3--5--4--6--4--7--6---|-4--3--5--4--6--4--7--6--|
-|-4-5-4-1-|-2--1--3--2--4--2--5--4-0-|-2--1--3--2--4--2--5--4--|
   . . . .   .  .  .  .  .  .  .  . .

[RIFF 3a (x4)]

Riff 4 (x2)
-|---------------------------------------|
-|---------------------------------------|
-|---------------------------------------|
-|------------------------------------^--|
-|-5-6--5-6-5-4-5------5-6-5-4-55-4---2~-|
-|-3-4--3-4-3-2-3-[x3]-3-4-3-2-33-2-0----|
   . .  . . . . .      . . . . .. . .

Riff 5 (x5)
-|---------------------------|-[ending 1,4 ]----|-[ending 2,3,5 ]----------|
-|---------------------------|------------------|--------------------------|
-|---------------------------|------------------|--------------------------|
-|---------------------------|------------------|--------------------------|
-|--------------000011113333-|----------0-6-0-4-|------------4---2---4---2-|
-|-0033431~-0000-------------|-0033431~-0-6-0-4-|-0033431~-3-4-3-2-3-4-3-2-|
   .......  ................   .......  .   .     .......  .   .   .   . 

Riff 6 (x3)
-|------------------------------|--------------------------|
-|------------------------------|--------------------------|
-|------------------------------|--------------------------|
-|------------------------------|-----------2--------------|
-|-4--2-1-7--5-4--5--4-5-4--2-1-|-4--2--1---2--5--4--5--4--|
-|-4--2-1-7--5-4--5--4-5-4--2-1-|-4--2--1-0----5--4--5--4--|
   .  . . .  . .  .  . . .  . .   .  .  . . .  .  .  .  .

Riff 5 + ending 1
Riff 5 + ending 2
RIFF 2 (x2)
RIFF 1 (x6) /slow/
OUTRO
RIFF 3a (x2)
RIFF 3b
RIFF 3a (x4)
RIFF 4 (x2)
RIFF 5 + ending 1
RIFF 5 + ending 2
RIFF 6 (x3)

END OF SONG
Добавлено: 13.10.2013
Вам также может быть интересно:
Другие материалы по этой песне:

Страница создана 08.07.2013
http://primanota.ru/despondency/embodiment-of-a-failed-brood-chords.htm
Привет, Гость.
Предлагаем пройти революционный курс по гитаре.
Подарок от PrimaNota.Ru, забирай!