PrimaNota.ru - самый крупный в мире бесплатный архив песенных текстов, аккордов, табулатур и нот


Despised Icon - Warm Blooded - текст песни, таба, видео

Регистрация Запомнить меня
Войти через:  Facebook Google Twitter Vk Yandex Mail.ru

Despised Icon - Warm Blooded - текст песни, таба, видео

Печатать
Просмотров: 132
-----------|------------------------------------------------------|
-----------|------------------------------------------------------|
-----------|------------------------------------------------------|
-----------|------------------------------------------------------|
-6-5-6-5-4-|-----------------------6---6---9---6---6-6-5-6-5-4----|
-4-3-4-3-2-|------------(slide)-/8--/8--/8--/8--/8---4-3-4-3-2----|


-----------|------------------------------------------------------|
-----------|------------------------------------------------------|
-----------|------------------------------------------------------|
-----------|----5---5---7---5---5---------------------------------|
-6-5-6-5-4-|--6-3-6-3-6-5-6-3-6-3-6-5-6-5-4-----------------------|
-4-3-4-3-2-|--4-3-4-3-4-5-4-3-4-3-4-3-4-3-2-----------------------|

------------------------------------0-----------------------------|
--------------(eric's part)---------4-----------------------------|
------------------------------------------------------------------|
------------------------------------------------------------------|
--4-4--3--2-------------------------------------------------------|
--4-4--3--2-------------------------------------------------------|

-----------------------0-0-0---------------0----------------------|
-----------------------4-3-4---------------4----------------------|
------------------------------------------------------------------|
------------------------------------------------------------------|
--4-4--3--2-------------------4-4--3--2---------------------------|
--4-4--3--2-------------------4-4--3--2---------------------------|

------------------------------0---0--0----------------------------|
------------------------------4---3--4----------------------------|
------------------------------------------------------------------|
------------------------------------------------------------------|
--4-4--3--2--1----4-4--3--2---------------4-3-2-4-----------------|
--4-4--3--2--1----4-4--3--2---------------4-3-2-4-----------------|


                                  1st time       2nd time
---------------------------------|------------|-------------------|
---------------------------------|------------|-------------------|
---------------------------------|------------|-------------------|
---------------------------------|-5----------|-------------------|
-3-2--2--2--3-2--2--2--3-2--2--2-|---4-6-4-6--|-4--3--4--3--------|
-1-0--0--0--1-0--0--0--1-0--0--0-|------------|-4--3--4--3--------|

       play open¬ palm muted    1st time        2nd time
------------------|---------|---------------|---------------------|
------------------|---------|---------------|---------------------|
------------------|---------|---------------|---------------------|
--5-----7-----5---|-----7-6-|---------------|---------------------|
--3-6-7-5-7-6-3-6-|-7-6-5-4-|---4---------3-|-7-6-----------------|
--3-4-5-5-5-4-3-4-|-5-4-5-4-|-3---5-4-3-2---|-5-4-----------------|

------------------------------------------------------------------|
------------------------------------------------------------------|
------------------------------------------------------------------|
-5---------------------------5------------------------------------|
-3----3----4----3----4--6-5--3----3----6-5------------------------|
-3--0-1-0--2--0-1-0--2--4-3-----0-1-0--4-3------------------------|

------------------------------------------------------------------|
------------------------------------------------------------------|
------------------------------------------------------------------|
-5-------------------------5--------------------------------------|
-3---3---4----6-------7-6--3----6---------------------------------|
-3-0-1-0-2--6---5--6~-5-4--3--6---6-5-4~--------------------------|


------------------------------------------------------------------|
------------------------------------------------------------------|
------------------------------------------------------------------|
-5--------------------------------------5-------------------------|
-3-2-3-2-4---3-2-2--3-2-2--3-2-2--2--2--3-2-3-2-4---6-5-6-5-4-----|
-3-0-1-0-2---1-0-0--1-0-0--1-0-0--0--0--3-0-1-0-2---4-3-4-3-2-----|


------------------------------------------------------------------|
------------------------------------------------------------------|
------------------------------------------------------------------|
------------------------------------------------------------------|
-3--4-3-----2222111144443333-4-3----4--3-4-6--3--8866446644334433-|
-1--2-1----------------------2-1----2--1-2-4--1-------------------|

-------------------------------------------------------------------|
-------------------------------------------------------------------|
-------------------------------------------------------------------|
-------------------------------------------------------------------|
---------------------------2222111144443333------------------------|
221111221122444411221111111----------------22111111112211224444111-|

-------------------|----------------------------------------------|
-------------------|----------------------------------------------|
-------------------|----------------------------------------------|
-------------------|----------------------------------------------|
-----12\---6-7-6-7-|-----------7----------------------------------|
-4/--------4-5-4-5-|444444444--5----------------------------------|


------------------------------------------------------------------|
------------------------------------------------------------------|
------------------------------------------------------------------|
------------------------------------------------------------------|
-44443333333334444333344446666333344443333------------------------|
------------------------------------------------------------------|


3 fois
------------------------------------------------------------------|
------------------------------------------------------------------|
------------------------------------------------------------------|
---------5--------------------------------------------------------|
-4--3----3--4-----------------------------------------------------|
-2--1----3--2--111111111111---------------------------------------|
Добавлено: 16.06.2012
Другие материалы по этой песне:
  • Аккорды и текст

Страница создана 27.02.2012
http://primanota.ru/despised-icon/warm-blooded-chords.htm
Привет, Гость.
Предлагаем пройти революционный курс по гитаре.
Подарок от PrimaNota.Ru, забирай!