PrimaNota.ru - самый крупный в мире бесплатный архив песенных текстов, аккордов, табулатур и нот


Despised Icon - Sheltered Reminiscence - текст песни, таба, видео

Регистрация Запомнить меня
Войти через:  Facebook Google Twitter Vk Yandex Mail.ru

Despised Icon - Sheltered Reminiscence - текст песни, таба, видео

Печатать
Просмотров: 147
Уроки эстрадного вокала в Санкт-Петербурге
--------------------------------------------------------------------
                             Sheltered Reminiscence - Despised Icon
--------------------------------------------------------------------
Tabbed by: escalade
Email: keganjgrode@yahoo.com
Tuning: Standard B
I did all the lazy work, so you can use this to finish the rest of the song.
Just give me some credit! I got help from the FPE-TV video of Despised Icon
on youtube, it'll help on the part right after this. i would have done it, but like I said,
I'm just really lazy.

*UPDATED 3/23/08*- i noticed after watching the FPE video that i had some parts wrong, 
i fixed it! So hopefully it's now more perfect.

*UPDATED 7/18/08*- I changed the intro to fit the CD. :)

B |------------------------------------------|
F#|------------------------------------------|
D |------------------------------------------|
A |------------------------------------------|
E |542-56-222-542-54-222-542-56-222-55443333-|
B |320-34-000-320-32-000-320-34-000-33221111-|
   ... .. ... ... .. ... ... .. ... ........

B |----------------------------------------------|
F#|----------------------------------------------|
D |----------------------------------------------|
A |----------------------------------------------| X3
E |222-542-56-222-542-54-222-542-56-222-55443333-|
B |000-320-34-000-320-32-000-320-34-000-33221111-|
   ... ... .. ... ... .. ... ... .. ... ........

B |-------------------------------------------|
F#|-------------------------------------------|
D |-------------------------------------------|
A |-------------------------------------------| X2
E |222-554---222-554---222-554---222-55443333-|
B |000-332---000-332---000-332---000-33221111-|
   ... ...   ... ...   ... ...   ... ........

B |----------------------------------------------|
F#|----------------------------------------------|
D |----------------------------------------------|
A |----------------------------------------------| X4
E |222-542-56-222-542-54-222-542-56-222-55443333-|
B |000-320-34-000-320-32-000-320-34-000-33221111-|
   ... ... .. ... ... .. ... ... .. ... ........
                                                1.     2.
B |--------------------------------------------|-----||------|
F#|--------------------------------------------|-----||------|
D |--------------------------------------------|-----||------|
A |--------------------------------------------|-----||------|
E |2-2-5-2-5-6-2-2-5-2-5-4-2-2-5-2-5-6-2-2-5-4-|-3-3-||-3333-|
B |0-0-3-0-3-4-0-0-3-0-3-2-0-0-3-0-3-4-0-0-3-2-|-1-1-||-1111-|
                                                        ....

B |--------||-----------------------------------------------|
F#|-7--7---||o--------------------------------------7--7----|
D |10-10-7-||-------7-8-7------------------7-8-7----10-10-7-|
A |------6-||-------6-7-6---3p0------------6-7-6----------6-|
E |--------||o------5-6-5-------3p0-3p0----5-6-5------------|
B |--------||--3p0-0-0-0--0-------------3p0-0-0-0--0--------|
                   . . .  .                 . . .  .

B |-------------------------------------------|
F#|----------------------------------10------o|
D |-----7-8-7---10-10-10-----7-8-7---8--10-9--|
A |-----6-7-6---9--9--9------6-7-6---7--9--8--| X2
E |-----5-6-5---8--8--8------5-6-5------8--7-o|
B |3p0-0-0-0--0---------3p0-0-0-0--0----------|
       . . .  .             . . .  .

B |?------------------------------------------------|
F#|?------------------------------------------------|
D |?------------------------------------------------|
A |?------------------------------------------------|
E |?------------------------------------------------|
B |?------------------------------------------------|

| /  slide up
| \  slide down
| h  hammer-on
| p  pull-off
| ~  vibrato
| +  harmonic
| x  Mute note
| .  Palm mute
===============================================================================
Добавлено: 06.04.2012
Другие материалы по этой песне:

Страница создана 06.03.2012
http://primanota.ru/despised-icon/sheltered-reminiscence-chords.htm
Привет, Гость.
Предлагаем пройти революционный курс по гитаре.
Подарок от PrimaNota.Ru, забирай!