PrimaNota.ru - самый крупный в мире бесплатный архив песенных текстов, аккордов, табулатур и нот


Despised Icon - Retina - текст песни, таба, видео

Регистрация Запомнить меня
Войти через:  Facebook Google Twitter Vk Yandex Mail.ru

Despised Icon - Retina - текст песни, таба, видео

Печатать
Просмотров: 151
Band: Despised Icon (www.despisedicon.com)
Song: Retina
Album: The Healing Process (2005)
Record Label: Century Media Records

Transcribed by: MexiChriS (C.D.G. Music Promotion)
Website: http://www.myspace.com/cdgmusicpromotion
Originaly Transcirbed by: Chris Hulwitz (all credit goes to him

Tuning: (B, E, A, D, F#, B) 2.5 steps down (B)

Keys:
  "  - tremelo pick
 / \ - slide
  .  - palm mute
  h  - hammer on
  p  - pull off


RIFF A:

|---------------------------------------------|
|---------------------------------------------|
|---------------------------------------------|
|--------------6"-5"--2"-3"-------------------|
|-------4"--3"--------------4"-3"-------------|
|-3"-2"---------------------------3/4"--3/4"--|

 -------------------------------------|
 -------------------------------------|
 ---------------------1"--2"--------5-|
 ----3"--------6"-5"----------3"----5-|
 -------4"--3"--------------------3-3-|
 -3"----------------------------------|
                                  .

RIFF B:

|---------------------------------------------------------|
|---------------------------------------------------------|
|---------------------------------------------------------|
|-----------------------6"-5"-----------------2"-3"-------|
|-----------------4"-3"-----------------------------4"-3"-|
|-3-4-5-4-3-4-5-4-------------0-0-0-0-0-0-0-0-------------|
  . . . . . . . .             . . . . . . . .

 ------------------------------------------------------|
 ------------------------------------------------------|
 ---------------------------------------------1"-2"----|
 -----------------------6"-5"-----------------------3"-|
 -----------------4"-3"--------------------------------|
 -3-4-5-4-3-4-5-4-------------0-0-0-0-0-0-0-0----------|
  . . . . . . . .             . . . . . . . .

RIFF A

|---------------------------------------------|
|---------------------------------------------|
|---------------------------------------------|
|--------------6"-5"--2"-3"-------------------|
|-------4"--3"--------------4"-3"-------------|
|-3"-2"---------------------------3/4"--3/4"--|

 -------------------------------------|
 -------------------------------------|
 ---------------------1"--2"--------5-|
 ----3"--------6"-5"----------3"----5-|
 -------4"--3"--------------------3-3-|
 -3"----------------------------------|
                                  .

RIFF B

|---------------------------------------------------------|
|---------------------------------------------------------|
|---------------------------------------------------------|
|-----------------------6"-5"-----------------2"-3"-------|
|-----------------4"-3"-----------------------------4"-3"-|
|-3-4-5-4-3-4-5-4-------------0-0-0-0-0-0-0-0-------------|
  . . . . . . . .             . . . . . . . .

 ------------------------------------------------------|
 ------------------------------------------------------|
 ---------------------------------------------1"-2"----|
 -----------------------6"-5"-----------------------3"-|
 -----------------4"-3"--------------------------------|
 -3-4-5-4-3-4-5-4-------------0-0-0-0-0-0-0-0----------|
  . . . . . . . .             . . . . . . . .

RIFF C:

|-----------------|    |-----------------|
|-----------------|    |-----------------|
|-----------------|    |-----------------|
|-5\4-6\5-7-8-7-6-|    |-----------------|
|-3\2-6\5-7-8-7-6-|    |-3-2-------------|
|-----4\3-5-6-5-4-| 4x |-----4-3-5-6-5-4-| 2x
                         . . . . . . . .

|-----------------|    |-----------------|    |-----------------|
|-----------------|    |-----------------|    |-----------------|
|-----------------|    |-----------------|    |-----------------|
|-5\4-6\5-7-8-7-6-|    |-----------------|    |-5\4-6\5-7-8-7-6-|
|-3\2-6\5-7-8-7-6-|    |-3-2-------------|    |-3\2-6\5-7-8-7-6-|
|-----4\3-5-6-5-4-| 2x |-----4-3-5-6-5-4-| 1x |-----4\3-5-6-5-4-| 2x
                         . . . . . . . .

RIFF A

|---------------------------------------------|
|---------------------------------------------|
|---------------------------------------------|
|--------------6"-5"--2"-3"-------------------|
|-------4"--3"--------------4"-3"-------------|
|-3"-2"---------------------------3/4"--3/4"--|

 -------------------------------------|
 -------------------------------------|
 ---------------------1"--2"--------5-|
 ----3"--------6"-5"----------3"----5-|
 -------4"--3"--------------------3-3-|
 -3"----------------------------------|
                                  .

RIFF B

|---------------------------------------------------------|
|---------------------------------------------------------|
|---------------------------------------------------------|
|-----------------------6"-5"-----------------2"-3"-------|
|-----------------4"-3"-----------------------------4"-3"-|
|-3-4-5-4-3-4-5-4-------------0-0-0-0-0-0-0-0-------------|
  . . . . . . . .             . . . . . . . .

 ------------------------------------------------------|
 ------------------------------------------------------|
 ---------------------------------------------1"-2"----|
 -----------------------6"-5"-----------------------3"-|
 -----------------4"-3"--------------------------------|
 -3-4-5-4-3-4-5-4-------------0-0-0-0-0-0-0-0----------|
  . . . . . . . .             . . . . . . . .

RIFF A

|---------------------------------------------|
|---------------------------------------------|
|---------------------------------------------|
|--------------6"-5"--2"-3"-------------------|
|-------4"--3"--------------4"-3"-------------|
|-3"-2"---------------------------3/4"--3/4"--|

 -------------------------------------|
 -------------------------------------|
 ---------------------1"--2"--------5-|
 ----3"--------6"-5"----------3"----5-|
 -------4"--3"--------------------3-3-|
 -3"----------------------------------|
                                  .

RIFF B

|---------------------------------------------------------|
|---------------------------------------------------------|
|---------------------------------------------------------|
|-----------------------6"-5"-----------------2"-3"-------|
|-----------------4"-3"-----------------------------4"-3"-|
|-3-4-5-4-3-4-5-4-------------0-0-0-0-0-0-0-0-------------|
  . . . . . . . .             . . . . . . . .

 ------------------------------------------------------|
 ------------------------------------------------------|
 ---------------------------------------------1"-2"----|
 -----------------------6"-5"-----------------------3"-|
 -----------------4"-3"--------------------------------|
 -3-4-5-4-3-4-5-4-------------0-0-0-0-0-0-0-0----------|
  . . . . . . . .             . . . . . . . .

FILL:

|--------------------------------------------------------------------------|
|--------------------------------------------------------------------------|
|--------------------------------------------------------------------------|
|-2"-3"--------------------------------------------------------------------|
|-------4"--3"-4"---------------222-222--55552--222-222--55552--22222--3-3-|
|-----------------4"--3"-0"-1"--000-000--33330--000-000--33330--00000--1-1-|
                                ... ...  .....  ... ...  .....  .....  . .

RIFF D:

|----------------------------------------------------------------|
|----------------------------------------------------------------|
|----------------------------------------------------------------|
|-----------------------/10--9/10--------------------------------|
|-222-222--55552--2-222-/-8--7/8---222-222--55552--2-222-333-333-|
|-000-000--33330--0-000-/-8--7/8---000-000--33330--0-000-111-111-|
  ... ...  .....  . ...            ... ...  .....  . ... ... ...

 -------------------------------------------------------------|
 -------------------------------------------------------------|
 -------------------------------------------------------------|
 -----------------------/10--9/10-----------------------------|
 -222-222--55552--2-222-/-8--7/8---222-222--55552--22222--3-3-|
 -000-000--33330--0-000-/-8--7/8---000-000--33330--00000--1-1-| 2x
  ... ...  .....  . ...            ... ...  .....  .....  . .

RIFF E:

|--------------------|     |---------------|
|--------------------|     |---------------|
|--------------------|     |---------------|
|---------------3----|     |---------------|
|---------------3----|     |---------------|
|-3~-00-3h4p3p0-1-00-| 7x  |-3~-00-3h4p3p0-|
     ..           ..            ..

RIFF F:

|-------------|     |-------------------------|
|-------------|     |-------------------------|
|-------------|     |-------------------------|
|-5---5-6-5---|     |-------------------------|
|-5---5-6-5---|     |-------------------------|
|-3-0-3-4-3-0-| 4x  |-3-3-4-4-3-3-0-0-3-3-0-0-| 4x
    .       .         . . . . . . . . . . . .

|-------------|    |---------------------------------------|    |--------|
|-------------|    |---------------------------------------|    |--------|
|-------------|    |---------------------------------------|    |--------|
|-5---5-6-5---|    |---------------------------------------|    |-2------|
|-5---5-6-5---|    |---------------------------------------|    |-2------|
|-3-0-3-4-3-0-| 4x |-3-3-4--3--0--3--0--3-3-4-4-3--0--3--0-| 2x |-0------|
    .       .        . . .  .  .  .  .  . . . . .  .  .  .

OUTRO:

|---------------------------------------------------------------------|
|---------------------------------------------------------------------|
|---------------------------------------------------------------------|
|-2-----3-----5/6\5-2-----3-----5/6\5-6-----3-----5-----2-------------|
|-2-----3-----5/6\5-2-----3-----5/6\5-6-6-6-3-3-3-5-5-5-2-2-2-2-2-2-2-|
|-0-0-0-1-0-0-3/4\3-0-0-0-1-0-0-3/4\3-4-4-4-1-1-1-3-3-3-0-0-0-0-0-0-0-|
    . .   . .         . .   . .         . .   . .   . .   . . . . . .

 ---------------------------------------------------------------------|
 ---------------------------------------------------------------------|
 ---------------------------------------------------------------------|
 -2-----3-----5/6\5-2-----3-----5/6\5-6-----3-----5-2-2-2-2-2-2-2-2-2-|
 -2-----3-----5/6\5-2-----3-----5/6\5-6-6-6-3-3-3-5-2-2-2-2-2-2-2-2-2-|
 -0-0-0-1-0-0-3/4\3-0-0-0-1-0-0-3/4\3-4-4-4-1-1-1-3-0-0-0-0-0-0-0-0-0-|
    . .   . .         . .   . .         . .   . .

|--------------------------------------------------------------------|
|--------------------------------------------------------------------|
|--------------------------------------------------------------------|
|-2-2-2-3-3-3-5-5--2-2-2-3-3-3-5-5--6-6-6-3-3-3-5-5-5--2-2-2-2-2-2-2-|
|-2-2-2-3-3-3-5-5--2-2-2-3-3-3-5-5--6-6-6-3-3-3-5-5-5--2-2-2-2-2-2-2-|
|-0-0-0-1-1-1-3-3--0-0-0-1-1-1-3-3--4-4-4-1-1-1-3-3-3--0-0-0-0-0-0-0-| 2x

|---------------------------------------------------------------------|
|---------------------------------------------------------------------|
|---------------------------------------------------------------------|
|-2-----3-----5/6\5-2-----3-----5/6\5-6-----3-----5-----2-------------|
|-2-----3-----5/6\5-2-----3-----5/6\5-6-6-6-3-3-3-5-5-5-2-2-2-2-2-2-2-|
|-0-0-0-1-0-0-3/4\3-0-0-0-1-0-0-3/4\3-4-4-4-1-1-1-3-3-3-0-0-0-0-0-0-0-| 2x
    . .   . .         . .   . .         . .   . .   . .   . . . . . .

|--------------------------------------------------------------------|
|--------------------------------------------------------------------|
|--------------------------------------------------------------------|
|-2-2-2-3-3-3-5-5--2-2-2-3-3-3-5-5--6-6-6-3-3-3-5-5-5--2-2-2-2-2-2-2-|
|-2-2-2-3-3-3-5-5--2-2-2-3-3-3-5-5--6-6-6-3-3-3-5-5-5--2-2-2-2-2-2-2-|
|-0-0-0-1-1-1-3-3--0-0-0-1-1-1-3-3--4-4-4-1-1-1-3-3-3--0-0-0-0-0-0-0-| 2x

|---------------------------------------------------------------------|
|---------------------------------------------------------------------|
|---------------------------------------------------------------------|
|-2-----3-----5/6\5-2-----3-----5/6\5-6-----3-----5-----2-------------|
|-2-----3-----5/6\5-2-----3-----5/6\5-6-6-6-3-3-3-5-5-5-2-2-2-2-2-2-2-|
|-0-0-0-1-0-0-3/4\3-0-0-0-1-0-0-3/4\3-4-4-4-1-1-1-3-3-3-0-0-0-0-0-0-0-|
    . .   . .         . .   . .         . .   . .   . .   . . . . . .

 ---------------------------------------------------------------------|
 ---------------------------------------------------------------------|
 ---------------------------------------------------------------------|
 -2-----3-----5/6\5-2-----3-----5/6\5-6-----3-----5-2-----------------|
 -2-----3-----5/6\5-2-----3-----5/6\5-6-6-6-3-3-3-5-2-----------------|
 -0-0-0-1-0-0-3/4\3-0-0-0-1-0-0-3/4\3-4-4-4-1-1-1-3-0-----------------|
    . .   . .         . .   . .         . .   . .


Song Order:
RIFF A
RIFF B
RIFF A
RIFF B
RIFF C
RIFF A
RIFF B
RIFF A
RIFF B
FILL
RIFF D
RIFF E
RIFF F
OUTRO
Добавлено: 29.07.2012
Другие материалы по этой песне:

Страница создана 25.02.2012
http://primanota.ru/despised-icon/retina-chords.htm
Привет, Гость.
Предлагаем пройти революционный курс по гитаре.
Подарок от PrimaNota.Ru, забирай!