PrimaNota.ru - самый крупный в мире бесплатный архив песенных текстов, аккордов, табулатур и нот


Despised Icon - A Fractured Hand - текст песни, таба, видео

Регистрация Запомнить меня
Войти через:  Facebook Google Twitter Vk Yandex Mail.ru

Despised Icon - A Fractured Hand - текст песни, таба, видео

Печатать
Просмотров: 206
This is some of beginning.
Most of it sounds right, and I only did the 'easy' stuff.
Standard B

--------------------------------------------|
--------------------------------------------|
--------------------------------------------|
22-2-2222-2-2222-2222-22-2222-2222-22-2222--| x7
22-2-2222-2-2222-2222-22-2222-2222-22-2222--|
00-0-0000-0-0000-0000-00-0000-0000-00-0000--|
.. . .... . .... .... .. .... .... .. ....

-------|
-------|
4------|
4------|
2-5-4--|
--3-2--|
  . .

-----------------------------------------------------|
-----------------------------------------------------|
-----------------------------------------------------|
5-4--------5-4-2s4-4s2-5-4---------------------------|
5-4--2-4-2-5-4---------5-4--2-4-2--------------2*--\-|
3-2--0-2-0-3-2---------3-2--0-2-0-222233330000-------| \
     . . .                  . . . ............       \
                                                     x3
------------------------------------------------------|
------------------------------------------------------|
------------------------------------------------------|
------------------------------------------------------|
5544--2244-5544-24444444-5544--2244-7777888877778888--|
3322--0022-3322-02222222-3322--0022-5555666655556666--|
....  .... .... ........ ....  .... ................

-----------------------------------------------------------------|
-----------------------------------------------------------------|
-----------------------------------------------------------------|
-----------------------------------------------------------------|
7-7-7-7-8-8-8-8-7-7-7-7-8-8-8-8-77777777888888887777777788888888-|
5-5-5-5-6-6-6-6-5-5-5-5-6-6-6-6-55555555666666665555555566666666-|
. . . . . . . . . . . . . . . . ................................

---------------------------------------------|
---------------------------------------------|
---------------------------------------------|
----------------------------------------0--1-|
7-7-7-7-8-8-8-8-7-7-7-7-8-8-8-8-4~--4-4-0--1-|
5-5-5-5-6-6-6-6-5-5-5-5-6-6-6-6-2~--2-2------|
. . . . . . . . . . . . . . . .     . .

------------------------------------13-13--13--13-13/-|
------------------------------------17-17--17--17-17/-|
------------------------------------------------------|
------------------------------------------------------|
5544--2244-5544----------5544--2244-------------------|
3322--0022-3322----------3322--0022-------------------|
....  .... ....          ....  ....

-------------------------|
-------------------------|
-------------------------|x2
-------------------------|
5544--2244-5544-24444444-|
3322--0022-3322-02222222-|
....  .... .... ........

------------------------------------13-13--13--13-13/-|
------------------------------------17-17--17--17-17/-|
------------------------------------------------------|
------------------------------------------------------|
5544--2244-5544-24444444-5544--2244-------------------|
3322--0022-3322-02222222-3322--0022-------------------|
....  .... .... ........ ....  ....

----------------------------------------|
----------------------------------------|
----------------------------------------|x3
----------------------------------------|
55555544-22222244-55555544-224444444444-|
33333322-00000022-33333322-002222222222-|
........ ........ ........ ............

--------------------------|
--------------------------|
--------------------------|
------------------4-------|
55555544-22222244-4-------|
33333322-00000022-2--////-|
........ ........

That's as far as I got.
Feel free to go ahead and use this tab and add on to it,
but just give me credit for what did.
Thanx
Keep it \m/etal!!
Добавлено: 20.05.2012
Другие материалы по этой песне:

Страница создана 16.04.2012
http://primanota.ru/despised-icon/a-fractured-hand-chords.htm
Привет, Гость.
Предлагаем пройти революционный курс по гитаре.
Подарок от PrimaNota.Ru, забирай!