PrimaNota.ru - самый крупный в мире бесплатный архив песенных текстов, аккордов, табулатур и нот


Despairs Ray - Yami Ni Furu Kiseki - таба, видео

Регистрация Запомнить меня
Войти через:  Facebook Google Twitter Vk Yandex Mail.ru

Despairs Ray - Yami Ni Furu Kiseki - таба, видео

Печатать
Просмотров: 179
Hello, i tabbed this song a few months ago.
I tried to wrote the tab in "Guitar Pro" but it's so hard to write all instruments.
So here is a tab for "Yami ni furu Kiseki" by D'espairsRay

The whole song is played on drop D (DADGBe)

This is the intro and the refrein

e|------------------------------------------------------------------|
B|------------------------------------------------------------------|
G|------------------------------------------------------------------|
D|5-5-5-5-5-5-5-5-5-5-5-5-5-5-5-5--2-2-2-2-2-2-2-2-2-2-2-2-2-2-2-2--|play it 3 times, then there's
A|3-3-3-3-3-3-3-3-3-3-3-3-3-3-3-3--2-2-2-2-2-2-2-2-2-2-2-2-2-2-2-2--|
D|---------------------------------2-2-2-2-2-2-2-2-2-2-2-2-2-2-2-2--|


        {x - dead note}

D|-5--------------------------2x2-4x4-5-7-|-5-| <------| Hold it for a while.
A|-3-16times--2-eight-times---2x2-4x4-5-7-|-3-| <------|
D|------------2---------------2x2-4x4-5-7-|------------|


        {< - means appearing}

    <    <      <    <
e|----------------------------|
B|--------------15---17/24----|
G|--16---14-------------------|
D|----------------------------|
A|----------------------------|
D|----------------------------|

Pre-chorus

e|---------------------------------------------------------------------|
B|---------------------------------------------------------------------|
G|------------------------------------------12-12-12-12\11-11-11\7-7-7-|
D|---------5---x-5-x-5---4---x-4-x-4---2----x--x--x--x--x--x--x-\x-x-x-|
A|---12\---3---x-3-x-3---2---x-2-x-2---2----10-10-10-10\9--9--9-\5-5-5-|
D|---12\-------------------------------2-------------------------------|


e|-------------------------------------------------|
B|-------------------------------------------------|
G|-------------------------------------------------|
D|-5---x-5-x-5---7---------------------------------|
A|-3---x-3-x-3---5---2-2-2--2-2-2--2-2-2--2-2-2----|
D|-------------------2-2-2--2-2-2--2-2-2--2-2-2----|

                     . .    . .    . .    . .

                {. - means palm muting}


And there's a refrain - it's the same as intro



e|------------------------------------------------------------------|
B|------------------------PLAY-IT-TWICE-----------------------------|
G|------------------------------------------------------------------|
D|5-5-5-5-5-5-5-5-5-5-5-5-5-5-5-5--2-2-2-2-2-2-2-2-2-2-2-2-2-2-2-2--|
A|3-3-3-3-3-3-3-3-3-3-3-3-3-3-3-3--2-2-2-2-2-2-2-2-2-2-2-2-2-2-2-2--|
D|---------------------------------2-2-2-2-2-2-2-2-2-2-2-2-2-2-2-2--|

  . . . . . . . . . . . . . . . .  . . . . . . . . . . . . . . . .


Then play

e|-----------------|
B|-----------------|
G|--9--12--11--14--|
D|--x--x---x---x---|
A|--7--10--9---12--|
D|-----------------|


And then again Pre-chorus and Chorus.

And after that there's a little acoustic riff


e|------------------|
B|------------------|
G|---7-------7------|
D|--5-5~----5-5-----|
A|-3-----0-2--------|
D|------------------|

And later there is again pre-chorus and chorus/refrain (it's the same thing). So have fun.
Добавлено: 02.03.2012
Другие материалы по этой песне:
  • Аккорды и текст

Страница создана 02.03.2012
http://primanota.ru/despairs-ray/yami-ni-furu-kiseki-chords.htm
Привет, Гость.
Предлагаем пройти революционный курс по гитаре.
Подарок от PrimaNota.Ru, забирай!