PrimaNota.ru - самый крупный в мире бесплатный архив песенных текстов, аккордов, табулатур и нот


Despair - Deaf And Blind - таба, видео

Регистрация Запомнить меня
Войти через:  Facebook Google Twitter Vk Yandex Mail.ru

Despair - Deaf And Blind - таба, видео

Печатать
Просмотров: 91
-------------------------------------------------------------------------------
                             Deaf and blind - Despair
-------------------------------------------------------------------------------
Tabbed by:thegoatrider
E-mail:

Tuning:
riff 1
e|---------------------------------------------------------------------------|
B|---------------------------------------------------------------------------|
G|---------------------------------------------------------------------------|
D|---------------------------------------------------------------------------|
A|----7-8-7-8-7-5-------7-8-7-8-7--9h10-----7-8-7-8-7-5-----7-8-7-8-7-5h7----|
E|000---------------000-----------------000-------------000------------------| 2 times
bridge
e|---------------------------------------------------------------------------|
B|---------------------------------------------------------------------------|
G|-12-------12---------------------------------------------------------------|
D|----11------11-------------------------------------------------------------|
A|------10-------10----------------------------------------------------------|
E|---------------------------------------------------------------------------|one time
riff 1 2 times

chorus
e|---------------------------------------------------------------------------|
B|---------------------------------------------------------------------------|
G|---------------------------------------------------------------------------|
D|-----2------2--------------------------------------------------------------|
A|-5-7-2--5-7-2--------------------------------------------------------------|
E|-3-5-2--3-5-2-000----------------------------------------------------------| 2 times

riff 2
e|---------------------------------------------------------------------------|
B|---------------------------------------------------------------------------|
G|---------------------------------------------------------------------------|
D|--------------------------------------------------------------9-5-7--------|
A|----79797977------9-10-9-10-9-10-99-----9-12-9-12-9-12-9-9----7-3-5--------|
E|-00---------00----------------------00---------------------00--------------| 3 times

riff 1 3 times
chorus 2 times

riff 3
e|---------------------------------------------------------------------------|
B|---------------------------------------------------------------------------|
G|--3------------------------------------------------------------------------|
D|3-3-3-4-2--3--7--5----7-5-7----7--------------------------5----------------|
A|3-1-3-4-2--3--7--5-0--7-5-7-0--7-7-4-7--555--333-555--777-5-0--333-555-333-|
E|1---1-2-2--1--5--3-0--5-3-5-0--5-6-3-6--------------------3-0--------------|
riff 4
e|---------------------------------------------------------------------------|
B|---------------------------------------------------------------------------|
G|---------------------------------------------------------------------------|
D|---------------------------------------------------------------------------|
A|----------222222222-----------777777777------------------22222277777788888-|
E|000000000-----------000000000---------00000000000000000--------------------|2 times
riff 1 5 times

e|---------------------------------------------------------------------------|
B|---------------------------------------------------------------------------|
G|---------------------------------------------------------------------------|
D|---------------------------------------------------------------------------|
A|---------------------------------------------------------------------------|
E|000-00-000-00-000-00-000-00------------------------------------------------|
riff 1 3 times



************************************

| /   slide up
| \   slide down
| h   hammer-on
| p   pull-off
| ~   vibrato
| +   harmonic
| x   Mute note
| b   Bend
| pb  Pre-bend
| br  Bend release
| pbr Pre-bend release
| brb Bend release bend

************************************
Добавлено: 01.01.2016
Другие материалы по этой песне:
  • Аккорды и текст

Страница создана 01.01.2016
http://primanota.ru/despair/deaf-and-blind-chords.htm
Привет, Гость.
Предлагаем пройти революционный курс по гитаре.
Подарок от PrimaNota.Ru, забирай!