PrimaNota.ru - самый крупный в мире бесплатный архив песенных текстов, аккордов, табулатур и нот


Desolated - Blasphemy - таба, видео

Регистрация Запомнить меня
Войти через:  Facebook Google Twitter Vk Yandex Mail.ru

Desolated - Blasphemy - таба, видео

Печатать
Просмотров: 101
Blasphemy by desolated. Fairly Easy song to learn.




B |----------------------|
F#|----------------------|
D |----------------------|
A |--7-8--7-8--7-10--7-8-|
E |--7-8--7-8--7-10--7-8-|
A |--7-8--7-8--7-10--7-8-|   Play this a few times.


"I have!
Walked through the valley!..."

B |----------------------|
F#|----------------------|
D |----------------------|
A |--2-1--2-1--4-3--2-1--|
E |--2-1--2-1--4-3--2-1--|
A |--2-1--2-1--4-3--2-1--|  Play x2

B |-------------------------------------|
F#|-------------------------------------|
D |-------------------------------------|
A |--2-1--2-1--4-3--2-1--11111111-------|
E |--2-1--2-1--4-3--2-1--11111111-------|
A |--2-1--2-1--4-3--2-1--11111111 Play--| x2

B |------|
F#|------|
D |------|
A |--2-1-|
E |--2-1-|
A |--2-1-|

"1,000 lies!..."

B |------------------------------------------------------------|
F#|------------------------------------------------------------|
D |------------------------------------------------------------|
A |--4-3-1------1--/444333-3-\-2-1--1--4-3-1------1--/444333-3-|
E |--4-3-1-2-1--1--/444333-3-\-2-1--1--4-3-1-2-1--1--/444333-3-|
A |--------2-1--1--/444333-3-\-2-1--1--------2-1--1--/444333-3-|


B |-------------------------------------------------------------|
F#|-------------------------------------------------------------|
D |-----------2----------8-7-5-7-----------2--------------------|
A |--2-1--1---2-2-1--1-1-6-5-3-5--2-1--1---2-2-1-11111111-------|
E |--2-1--1-4-2-2-1--1-1-6-5-3-5--2-1--1-4-2-2-1-11111111-------|
A |--2-1--1-4---2-1--1-1----------2-1--1-4---2-1-11111111 Play--| x2


INSTRUMENTAL

B |----------------------------------------------------------------|
F#|----------------------------------------------------------------|
D |----------------------------------------------------------------|
A |------0------0------0------0------0------0------0------0--------|
E |----2--2---2--2---2--2---2--2---1--1---1--1---1--1---1--1-------|
A |--4------4------4------4------3------3------3------3----- Play--| x3

"Blasphemy!"

B |---------------------|
F#|---------------------|
D |---------------------|
A |---------------------|
E |---------5-5-2-2-----|
A |--4-4--4---------4-3-|


B |------------------------------------------------|
F#|------------------------------------------------|
D |------------------------------------------------|
A |--2-1--1---1---1-1--2-1--1------0------0--------|
E |--2-1--1---1---1-1--2-1--1----2--2---1--1-------|
A |--2-1--1---1---1-1--2-1--1--4------3----- Play--| x2

B |-------------------------------------------------------|
F#|-------------------------------------------------------|
D |-----------2----------8-7-5-7-----------2--------------|
A |--2-1--1---2-2-1--1-1-6-5-3-5--2-1--1---2-2-1-11111111-|
E |--2-1--1-4-2-2-1--1-1-6-5-3-5--2-1--1-4-2-2-1-11111111-|
A |--2-1--1-4---2-1--1-1----------2-1--1-4---2-1-11111111-|

B |------------------------------------------------|
F#|------------------------------------------------|
D |-----------2----------8-7-5-7-----------2-------|
A |--2-1--1---2-2-1--1-1-6-5-3-5--2-1--1---2-2-1-1-|
E |--2-1--1-4-2-2-1--1-1-6-5-3-5--2-1--1-4-2-2-1-1-|
A |--2-1--1-4---2-1--1-1----------2-1--1-4---2-1-1-|

B |-----------------------|
F#|-----------------------|
D |-----------------------|
A |-/44433311-/44433311-0-|
E |-/44433311-/44433311-0-|
A |-/44433311-/44433311-0-|

          "I live my life, by the fucking book!..."
B |-------------------------------|
F#|-------------------------------|
D |-------------------------------|
A |-1-4-3---1-4-3---1-4-3---1-4-7-|
E |-1-4-3---1-4-3---1-4-3---1-4-7-|
A |-1-4-3---1-4-3---1-4-3---1-4-7-|

B |---------------------|
F#|---------------------|
D |---------------------|
A |-1-4-3---1-4-7-------|
E |-1-4-3---1-4-7-------|
A |-1-4-3---1-4-7 Play--| x2

B |--------|
F#|--------|
D |--------|
A |--1-4-3-|
E |--1-4-3-|
A |--1-4-3-| END
Добавлено: 30.06.2013
Вам также может быть интересно:
Другие материалы по этой песне:
  • Аккорды и текст

Страница создана 30.06.2013
http://primanota.ru/desolated/blasphemy-chords.htm
Привет, Гость.
Предлагаем пройти революционный курс по гитаре.
Подарок от PrimaNota.Ru, забирай!