PrimaNota.ru - самый крупный в мире бесплатный архив песенных текстов, аккордов, табулатур и нот


Desobediencia Civil - Sangre De Inocentes - таба, видео

Регистрация Запомнить меня
Войти через:  Facebook Google Twitter Vk Yandex Mail.ru

Desobediencia Civil - Sangre De Inocentes - таба, видео

Печатать
Просмотров: 74
intro
e|----------------------------------------------------------------|
B|----------------------------------------------------------------|
G|----------------------------------------------------------------|
D|----7-777777-8-888888--5-555555-5-555555------------------------|
A|----7-777777-8-888888--5-555555-5-555555------------------------|
E|----5-555555-6-666666--3-333333-3-333333------------------------|

Bridge  (nada es nuestro)
e|---------------------------------------------------------|
B|---------------------------------------------------------|
G|---------------------------------------------------------|
D|---77777777-99999999-77777777-99999999-------------------|
A|---77777777-99999999-77777777-99999999-------------------|
E|---55555555-77777777-55555555-77777777-------------------|

verse
e|---------------------------------------------------------|
B|---------------------------------------------------------|
G|---------------------------------------------------------|
D|---7777-8888-9999--5-5-5-7777-8888-9999--5-3-------------|
A|---7777-8888-9999--5-5-5-7777-8888-9999--5-3-------------|
E|---5555-6666-7777--3-3-3-5555-6666-7777--3-1-------------|

Chorus 
e|---------------------------------------------------------|
B|---------------------------------------------------------|
G|--------------------7-7-7----------------7-7-7-----------|
D|----7777-8888-9999--7-7-7-7777-8888-9999-7-7-7-----------|
A|----7777-8888-9999--5-5-5-7777-8888-9999-5-5-5-----------|
E|----5555-6666-7777--------5555-6666-7777-----------------|

Intro x 6 
Bridge x 1
Verse x 2.
Bridge
Verse x 2
Bridge
Chorus x 2 
Bridge
Verse x 2 
Bridge
Verse x 2 
Bridge 
Chorus x 2
Verse x 2
Bridge 
Verse x 2
Bridge
Chorusx2 

by jejeproo -jejeproo@hotmail.com myspace.com/jejeproo
Добавлено: 31.05.2012
Другие материалы по этой песне:

Страница создана 31.05.2012
http://primanota.ru/desobediencia-civil/sangre-de-inocentes-chords.htm
Привет, Гость.
Предлагаем пройти революционный курс по гитаре.
Подарок от PrimaNota.Ru, забирай!