PrimaNota.ru - самый крупный в мире бесплатный архив песенных текстов, аккордов, табулатур и нот


Desmond Child - Last Of An Ancient Breed - таба, видео

Регистрация Запомнить меня
Войти через:  Facebook Google Twitter Vk Yandex Mail.ru

Desmond Child - Last Of An Ancient Breed - таба, видео

Печатать
Просмотров: 100
Guitar 1
e|---------------------------------------------------------------------------|
b|-6-/13-11-10-6-8-8---6-8-8\10—-8^-8^(8)--6-8^-8-6-8---6-\13-11-10-6-8-8----|
g|---------------------------------------------------------------------------|
D|---------------------------------------------------------------------------|
A|---------------------------------------------------------------------------|
E|---------------------------------------------------------------------------|
Guitar 2
e|---------------------------------------------------------------------------|
b|---------------------------------------------------------------------------|
g|-------------3-5-5-------7--------5--------3------5---------------3-5-5----|
D|-3-----------3-5-5-------7--------5--------3------5----3----------3-5-5----|
A|-3-----------1-3-3-------5--------3--------1------3----3----------1-3-3----|
E|-1-----------------------------------------------------1-------------------|

e|-------------10-13---------------------------------------------------------|
b|-8/10--10-13---------------------------------------------------------------|
g|---------------------------------------------------------------------------|
D|---------------------------------------------------------------------------|
A|---------------------------------------------------------------------------|
E|---------------------------------------------------------------------------|

e|---------------------------------------------------------------------------|
b|---------------------------------------------------------------------------|
g|-7-----5--5----3-----------------------------------------------------------|
D|-7-----5--5----3-----------------------------------------------------------|
A|-5-----3--3----1-----------------------------------------------------------|
E|---------------------------------------------------------------------------|


Guitar 1   Seize this moment in your hand…
e|----------1-(1)------------------------------------------------------------|
b|-1--------3-(3)---------1--------------------------------------------------|
g|-0--------3—(3)---------0--------------------------------------------------|
D|-2--------1-(1)---------2--------------------------------------------------|
A|-3----------------------3--------------------------------------------------|
E|---------------------------------------------------------------------------|
Guitar 2
e|---------------------------------------------------------------------------|
b|---------------------------------------------------------------------------|
g|-----5------------3----------5-----3-3-3-3-3-3-3-3-3-3-3-3-3---------------|
D|-----5------------3----------5-----3-3-3-3-3-3-3-3-3-3-3-3-3---------------|
A|-----3------------1----------3-----1-1-1-1-1-1-1-1-1-1-1-1-1---------------|
E|---------------------------------------------------------------------------|

Guitar  1  Warriors…
e|---------------------------------------------------------------------------|
b|---------------------------------------------------------------------------|
g|--------7-----7-----5--3--7--5--------------------------------------7—-5---|
D|--3-----7-----7-----5--3--7--5--------------------------------------7-—5---|
A|--3-----5-----5-----3--1--5--3-----7-7-7-7-7-7-7-7-8-8-8-8-8-8-8-8--5--3---|
E|--1--------------------------------5-5-5-5-5-5-5-5-6-6-6-6-6-6-6-6---------|
Guitar 2
e|---------------------------------------------------------------------------|
b|---------------------------------------------------------------------------|
g|---------------------------------------------------------------------------|
D|---------------------------------------------------------------------------|
A|---------------------------------------------------------------------------|
E|--17-------------------------------------------15/5------------------------|

Guitar  1
e|---------------------------------------------------------------------------|
b|---------------------------------------------------------------------------|
g|----------------------------------3----5----7----5---Piano-----------------|
D|----------------------------------3----5----7----5-------------------------|
A|--8-8-8-8-8-8-8-8-8-8-8-8-8-8-8---1----3----5----3-------------------------|
E|--6-6-6-6-6-6-6-6-6-6-6-6-6-6-6--------------------------------------------|
Guitar 2
e|---------------------------------------------------------------------------|
b|-------------------------10-11^--------------------------------------------|
g|------------------/10-12---------------------------------------------------|
D|--8-7---8-7-------------------------------------------Piano----------------|
A|------8-----8--------------------------------------------------------------|
E|---------------------------------------------------------------------------|

REPEAT and…

e|-----------------------------------------------------------------------17--|
b|--6--13-11-10-6-6/8—8^-8^-8^-6-8^-8-6-8/-6--13-11-10-6-6/8/0-----------18--|
g|-----------------------------------------------------------------14-16-----|
D|-------------------------------------------------------------/15-----------|
A|---------------------------------------------------------------------------|
E|---------------------------------------------------------------------------|

e|---18-18-18-18—17/15---15-17^----------------------------------------------|
b|---17-17-17-17--------18---------------------------------------------------|
g|---------------------------------------------------------------------------|
D|---------------------------------------------------------------------------|
A|---------------------------------------------------------------------------|
E|---------------------------------------------------------------------------|

And Guitar 2
E|----------------------------------------------------------16^-16^-14---16^--|
b|--19^ 18-------19^19^19^19^19^19^19^19^19^19^19^-21^---------------16------|
g|---------------21^21^21^21^21^21^21^21^21^21^21^---------------------------|
D|---------------------------------------------------------------------------|
A|---------------------------------------------------------------------------|
E|---------------------------------------------------------------------------|

e|--16-14-16-17/16/14—11/12/14---17/16/14-17/16/14-17/16/14-17/16/14-14--14--|
b|---------------------------------------------------------------------------|
g|---------------------------------------------------------------------------|
D|---------------------------------------------------------------------------|
A|---------------------------------------------------------------------------|
E|---------------------------------------------------------------------------|

e|-------------16^-16-16/14/13----13----13-15^15-13---15^-15-13---13--13--13-|
b|-15/13-15-13-----------------15----15------------15-----------15--15--15--15
g|---------------------------------------------------------------------------|
D|---------------------------------------------------------------------------|
A|---------------------------------------------------------------------------|
E|---------------------------------------------------------------------------|

e|-13--13------15^-15-13-15-13------13/15/13-12-13-12/10---------------------|
b|---15--15-15---------------------------------------------------------------|
g|---------------------------------------------------------------------------|
D|---------------------------------------------------------------------------|
A|---------------------------------------------------------------------------|
E|---------------------------------------------------------------------------|
Добавлено: 04.04.2012
Вам также может быть интересно:
Другие материалы по этой песне:
  • Аккорды и текст

Страница создана 04.04.2012
http://primanota.ru/desmond-child/last-of-an-ancient-breed-chords.htm
Привет, Гость.
Предлагаем пройти революционный курс по гитаре.
Подарок от PrimaNota.Ru, забирай!