PrimaNota.ru - самый крупный в мире бесплатный архив песенных текстов, аккордов, табулатур и нот


Desktop - Liberty - бас-таба, видео

Регистрация Запомнить меня
Войти через:  Facebook Google Twitter Vk Yandex Mail.ru

Desktop - Liberty - бас-таба, видео

Печатать
Просмотров: 78
-------------------------------------------------------------------------------
                           Liberty - Desktop
-------------------------------------------------------------------------------
Album: Desktop
Tabbed by: CSA
E-mail: Sounderoxner@gmail.com

Tuning:Standard

Chorus
G|-----------------------------------------------------------------------|
D|-----------------------------------------------------------------------|X4
A|--3-3-3-3-3-3-3-3-1-1-1-1----------------------------------------------|
E|--------------------------4-4-3-3-1-1-1-1-1-1-1-1-1-1-1-1-1-1-1-1------|

Bridge
G|----------------------3-/4------------------------------------------------|
D|--3--3--3--3--3--3--3------3--3--3--3---3-----3-----3-----3/---3---3---3--|
A|--------------------------------------------------------------------------|
E|--------------------------------------1---1-1---1-1---1-1----1---1---1----|

G|--------------------------------------------------------------------------|
D|----3---3---3---3----------3---3---6------3---3---3---3-------------------|
A|----------------------3/-------------6/-----------------------------------|
E|--1---1---1---1---1-1----1---1---4------1---1---1---1---------------------|

Chorus X4

Breakdown

Chorus X2


| /  slide up
| \  slide down
| h  hammer-on
| p  pull-off
| ~  vibrato
| +  harmonic
| x  Mute note
===============================================================================

http://www.desktopjams.org/
Добавлено: 03.10.2013
Другие материалы по этой песне:
  • Аккорды и текст

Страница создана 03.10.2013
http://primanota.ru/desktop/liberty-chords.htm
Привет, Гость.
Предлагаем пройти революционный курс по гитаре.
Подарок от PrimaNota.Ru, забирай!