PrimaNota.ru - самый крупный в мире бесплатный архив песенных текстов, аккордов, табулатур и нот


Desktop - Head Games - бас-таба, видео

Регистрация Запомнить меня
Войти через:  Facebook Google Twitter Vk Yandex Mail.ru

Desktop - Head Games - бас-таба, видео

Печатать
Просмотров: 100
-------------------------------------------------------------------------------
                           Head Games - Desktop
-------------------------------------------------------------------------------
Album: Desktop 2
Tabbed by: CSA
E-mail: Sounderoxner@gmail.com

Tuning:Standard


Verse
G|-----------------|
D|-----------------| X8
A|-----------------|
E|--1-1-1-1-1-1----|

G|-----------------|
D|-----------------| X4
A|--1-1-1-1-1-1----|
E|-----------------|

G|-----------------|
D|-----------------| X12
A|-----------------|
E|--1-1-1-1-1-1----|

G|-----------------|
D|-----------------| X4
A|--1-1-1-1-1-1----|
E|-----------------|

G|-----------------|
D|-----------------| X4
A|-----------------|
E|--1-1-1-1-1-1----|

Chorus
G|----10-----------9------------------10-----------9-----7---9-----------|
D|-----------7-------------5h7p5-------------7---------------------------| X4
A|--8----------0-7---0-5h7-------h7-8----------0-7---0-5---7-------------|
E|-------0-5-----------------------------0-5-----------------------------|

Verse X1

Chorus X4

Breakdown

Chorus X4

Outro/Chorus Inverted
G|----10-----------9-----7---9---10-----------9--------------------------|
D|-----------7--------------------------7-------------5h7p5--------------| X9
A|--8----------0-7---0-5---7---8----------0-7---0-5h7-------h7-----------|
E|-------0-5------------------------0-5----------------------------------|

G|----10-----------9-----7---9-|
D|-----------7-----------------|
A|--8----------0-7---0-5---7---|
E|-------0-5-------------------|



| /  slide up
| \  slide down
| h  hammer-on
| p  pull-off
| ~  vibrato
| +  harmonic
| x  Mute note
===============================================================================
Добавлено: 16.09.2013
Вам также может быть интересно:
Другие материалы по этой песне:
  • Аккорды и текст

Страница создана 16.09.2013
http://primanota.ru/desktop/head-games-chords.htm
Привет, Гость.
Предлагаем пройти революционный курс по гитаре.
Подарок от PrimaNota.Ru, забирай!