PrimaNota.ru - самый крупный в мире бесплатный архив песенных текстов, аккордов, табулатур и нот


Desktop - Fired Up - бас-таба, видео

Регистрация Запомнить меня
Войти через:  Facebook Google Twitter Vk Yandex Mail.ru

Desktop - Fired Up - бас-таба, видео

Печатать
Просмотров: 80
-------------------------------------------------------------------------------
                           Fired Up - Desktop
-------------------------------------------------------------------------------
Album: Desktop
Tabbed by: CSA
E-mail: Sounderoxner@gmail.com

Tuning:Standard

Intro/Verse
G|-----------------------------------------------------------------------|
D|-----------------------------------------------------------------------| X3
A|--6-6-6-6-6-6-6-6-5-5-5-5-5-5-5-5-4-4-4-4-4-4-4-4-3-3-3-3-3-3-3-3------|
E|-----------------------------------------------------------------------|

G|--------------------------------------------------------------------------|
D|--------------------------------------------------------------------------|
A|--6-6-6-6-6-6-6-6-5-5-5-5-5-5-5-5-4-4-4-4-4-4-4-4-8-8-8-8-8-8-8-8---------|
E|--------------------------------------------------------------------------|

G|--------|       G|--------|
D|--------| X28   D|--------|
A|--10----|       A|--10\---|
E|--------|       E|--------|

Chorus
G|-----------------------------------|     G|-------|
D|-----------------------------------| X8  D|-------|
A|------------------3-3-5-5-6-6-5-5--|     A|-------|
E|--3-3-3-3-3-3-3-3------------------|     E|--3\---|

Intro/Verse X1

G|--------|
D|--------|
A|--------|
E|--3-----| 


Synth Part/Breakdown
G|-----------------------|
D|-----------------------| X16
A|-----------------------|
E|--3-3-3-3/15-15-15-15--|

Chorus X7

G|-----------------------------------|
D|-----------------------------------|
A|------------------3-3-5-5-6-6-5\---|
E|--3-3-3-3-3-3-3-3------------------|

REST

Chorus X8

End
G|--------|
D|--------|
A|--------|
E|--3-----|



| /  slide up
| \  slide down
| h  hammer-on
| p  pull-off
| ~  vibrato
| +  harmonic
| x  Mute note
===============================================================================
Добавлено: 26.10.2013
Другие материалы по этой песне:
  • Аккорды и текст

Страница создана 26.10.2013
http://primanota.ru/desktop/fired-up-chords.htm
Привет, Гость.
Предлагаем пройти революционный курс по гитаре.
Подарок от PrimaNota.Ru, забирай!