PrimaNota.ru - самый крупный в мире бесплатный архив песенных текстов, аккордов, табулатур и нот


Desert Sessions - Teens Of Thailand - текст песни, таба, видео

Регистрация Запомнить меня
Войти через:  Facebook Google Twitter Vk Yandex Mail.ru

Desert Sessions - Teens Of Thailand - текст песни, таба, видео

Печатать
Просмотров: 149
-------------------------------------------------------------------------------
                         TEENS OF THAILAND - Desert Sessions
-------------------------------------------------------------------------------
Tabbed by: Michael Doyle
Tuning: down 2 steps

The song is just variations of the following riffs

C|---------------------------------------------------------------------------|
G|---------------------------------------------------------------------------|
Eb|-----------/7-6-----------------------------------------------------------|
Bb|-----4h5p4----------------------------------------------------------------|
F|---------------------------------------------------------------------------|
C|--0-0----------------------------------------------------------------------|

C|---------------------------------------------------------------------------|
G|---------------------------------------------------------------------------|
Eb|--------------------------------------------------------------------------|
Bb|--------------------------------------------------------------------------|
F|------7p6------5p4------3p2------------------------------------------------|
C|--0-0-----7--0-----5--0-----3---3-3-3-3/5-5/7------------------------------|

Bridge:
C|---------------------------------------------------------------------------|
G|---------------------------------------------------------------------------|
Eb|--------------------------------------------------------------------------|
Bb|--------------------------------------------------------------------------|
F|------------------------------------------------7--------------------------|
C|--0--5-8--7-0--5-8--7-10--8p0--5-8--7-0--5-8--7----8p0---------------------|

C|---------------------------------------------------------------------------|
G|---------------------------------------------------------------------------|
Eb|------------------------(Variation:2h4p2)---------------------------------|
Bb|----2h4---------2h4-------------------------------------------------------|
F|---------3-----------3-3---------------------------------------------------|
C|--0---------0-0------------------------------------------------------------|

Solo:
C|---------------------------------------------------------------------------|
G|---------------------------------------------------------------------------|
Eb|-----7---7------7---7---7---7-9-------7---7------7---7---7---7-9--9b------|
Bb|---9---9---9--9---9---9---9-----9---9---9---9--9---9---9---9--------------|
F|---------------------------------------------------------------------------|
C|---------------------------------------------------------------------------|

C|---------------------------------------------------------------------------|
G|---------------------------------------------------------------------------|
Eb|---9p7---7---9p7---7-9-9b---9p7---7--9p7---9b-9-------7-9-----------------|
Bb|-------9---------9--------------9--------9--------7h9-----9---------------|
F|---------------------------------------------------------------------------|
C|---------------------------------------------------------------------------|

C|---------------------------------------------------------------------------|
G|---------------------------------------------------------------------------|
Eb|-------7-9p7---7-9-9b-----------------------------------------------------|
Bb|---7h9-------9------------------------------------------------------------|
F|---------------------------------------------------------------------------|
C|---------------------------------------------------------------------------|
Добавлено: 27.06.2012
Другие материалы по этой песне:

Страница создана 26.02.2012
http://primanota.ru/desert-sessions/teens-of-thailand-chords.htm
Привет, Гость.
Предлагаем пройти революционный курс по гитаре.
Подарок от PrimaNota.Ru, забирай!