PrimaNota.ru - самый крупный в мире бесплатный архив песенных текстов, аккордов, табулатур и нот


Desert Sessions - Nova - текст песни, таба, видео

Регистрация Запомнить меня
Войти через:  Facebook Google Twitter Vk Yandex Mail.ru

Desert Sessions - Nova - текст песни, таба, видео

Печатать
Просмотров: 94
-------------------------------------------------------------------------
                              Desert Sessions
                                    Nova
-------------------------------------------------------------------------

Tuning is standard.


Intro   13x                1x                 1x
E-----------------|-----------------|---------------------|
B-----------------|-----------------|---------------------|
G-----------------|-----------------|---------------------|
D--------7--------|--------8--------|-----------10--------|
A-7--7------------|-8--8------------|-10---10-------------|
E---5--5---5-5-5--|---6--6---6-6-6--|----8----8----8-8-8--|

           1x
E------------------------|
B------------------------|
G------------------------|
D------------10--10-9-8--|
A--10---10-------10-9-8--|
E-----8----8------8-7-6--|


Verse
Chord on the 10th and 8th frets play 14x, then the last two
E-------------------------------------------|
B-------------------------------------------|
G-------------------------------------------|
D-7-7-7-7-7-7-7-7--8-8-8-8-8-8-8-8--10-9-8--|
A-7-7-7-7-7-7-7-7--8-8-8-8-8-8-8-8--10-9-8--|
E-5-5-5-5-5-5-5-5--6-6-6-6-6-6-6-6---8-7-6--|


Chorus
E---------------------------------------------------------------------|
B---------------------------------------------------------------------|
G-----------------------------------5-5-5-5-5-5-5-5-------------------|
D-7-7-7-7-7-7-7-7--6-6-6-6-6-6-6-6--5-5-5-5-5-5-5-5--4-4-4-4-4-4-4-4--|
A-7-7-7-7-7-7-7-7--6-6-6-6-6-6-6-6--3-3-3-3-3-3-3-3--4-4-4-4-4-4-4-4--|
E-5-5-5-5-5-5-5-5--4-4-4-4-4-4-4-4-------------------2-2-2-2-2-2-2-2--|

E---------------------------------------------------------------------|
B---------------------------------------------------------------------|
G------------------7-7-7-7-7-7-7-7------------------------------------|
D-3-3-3-3-3-3-3-3--7-7-7-7-7-7-7-7--7-7-7-7-7-7-7-7--8-8-8-8-8-8-8-8--|
A-3-3-3-3-3-3-3-3--5-5-5-5-5-5-5-5--7-7-7-7-7-7-7-7--8-8-8-8-8-8-8-8--|
E-1-1-1-1-1-1-1-1-------------------5-5-5-5-5-5-5-5--6-6-6-6-6-6-6-6--|

E---------------------------------------------|
B---------------------------------------------|
G---------------------------------------------|
D-10-10-10-10-10-10-10-10-10-10-10-10-10-9-8--|
A-10-10-10-10-10-10-10-10-10-10-10-10-10-9-8--|
E-8---8--8--8--8--8--8--8--8--8--8--8--8-7-6--|


Then go back to verse

Chorus 2
E---------------------------------------------------------------------|
B---------------------------------------------------------------------|
G-----------------------------------5-5-5-5-5-5-5-5-------------------|
D-7-7-7-7-7-7-7-7--6-6-6-6-6-6-6-6--5-5-5-5-5-5-5-5--4-4-4-4-4-4-4-4--|
A-7-7-7-7-7-7-7-7--6-6-6-6-6-6-6-6--3-3-3-3-3-3-3-3--4-4-4-4-4-4-4-4--|
E-5-5-5-5-5-5-5-5--4-4-4-4-4-4-4-4-------------------2-2-2-2-2-2-2-2--|

E---------------------------------------------------------------------|
B---------------------------------------------------------------------|
G------------------7-7-7-7-7-7-7-7------------------------------------|
D-3-3-3-3-3-3-3-3--7-7-7-7-7-7-7-7--7-7-7-7-7-7-7-7--8-8-8-8-8-8-8-8--|
A-3-3-3-3-3-3-3-3--5-5-5-5-5-5-5-5--7-7-7-7-7-7-7-7--8-8-8-8-8-8-8-8--|
E-1-1-1-1-1-1-1-1-------------------5-5-5-5-5-5-5-5--6-6-6-6-6-6-6-6--|

E--------------------------------------------------------------------|
B--------------------------------------------------------------------|
G-------------------------------------------10-10-10-10-10-10-10-10--|
D-10-10-10-10-10-10-10-10--4-4-4-4-4-4-4-4--10-10-10-10-10-10-10-10--|
A-10-10-10-10-10-10-10-10--4-4-4-4-4-4-4-4---8--8--8--8--8--8--8--8--|
E--8--8--8--8--8--8--8--8--2-2-2-2-2-2-2-2---------------------------|

E-----------------------------|
B-----------------------------|
G-7-7-7-7-7-7-7-7-------------|
D-7-7-7-7-7-7-7-7--7-7-7-7-7--|
A-5-5-5-5-5-5-5-5--7-7-7-7-7--|
E------------------5-5-5-5-5--|


Cue drum solo, then verse twice, then solo
while rhythm guitar plays verse

Solo
E--------------------------------------------------------------|
B--------------------------------------------------------------|
G---------------------------/15~--14-14~-12~--12-12-14-12-12~--|
D-/12-12b-10-----------12-10-----------------------------------|
A-----------12~---12-12----------------------------------------|
E--------------------------------------------------------------|

E------------------------------------------------------------|
B---------------------------------------------------19-------|
G-14-14-15-14-14~--15-15-17-15-15--19-17-17~--17-17---17-----|
D-------------------------------------------------------17~--|
A------------------------------------------------------------|
E------------------------------------------------------------|

Outro on the intro riff. Best I can do for now, know it's missing some small things. 
Sorry guys.
Добавлено: 15.10.2013
Вам также может быть интересно:
Другие материалы по этой песне:
  • Аккорды и текст

Страница создана 25.04.2012
http://primanota.ru/desert-sessions/nova-chords.htm
Привет, Гость.
Предлагаем пройти революционный курс по гитаре.
Подарок от PrimaNota.Ru, забирай!