PrimaNota.ru - самый крупный в мире бесплатный архив песенных текстов, аккордов, табулатур и нот


Desert Sessions - Like A Drug - текст песни, таба, перевод, видео

Регистрация Запомнить меня
Войти через:  Facebook Google Twitter Vk Yandex Mail.ru

Desert Sessions - Like A Drug - текст песни, таба, перевод, видео

Печатать
Просмотров: 334
Авторы: Joey Castillo, Troy Van Leeuwen, Josh Homme

This is off Vol. 6 of the Desert Sessions.... wow, I love the
feel of this song! Throw a bunch of reverb on your guitar, tune
it down half a step and you're all set! =)

Tuned Down a Half-Step (EADGBE)


Verse:
This is the basic verse, the first part is repeated a certain
number of times before playing the 2nd part. This number varies
throughout the song, so you'll really need to listen to it.
E|-----0-0------|----------------------------------------------|
B|-----1-1------|----------------------------------------------|
G|-----2-2------|----repeat, then------------------------------|
D|-----2-2------|-----------------------2--2-2-2-0-------------|
A|--0-----------|----------------------------------3-----------|
E|---------0-3--|----------------------------------------------|
   "Since you're gone..."


Chorus:
This is the basic chorus, it's slightly different each time
they play it so you can improv a little with these notes. The
~ indicates whammy bar.
E|--------------------5--5--------------------5~---------------|
B|--6---5/6-----------5--5-----6---5/6--------5~---------------|
G|--7---6/7---5-7-5---7--5-----7---6/7---7-5--5~---------------|
D|--7---6/7-----------7--7-----7---6/7--------7~---------------|
A|--5---4/5-----------5--7-----5---4/5--------7~---------------|
E|--------------------5--5--------------------5~---------------|
"...say, it wasn't meant to be"


Solo:
E|-----0--7---5-5-7-5--5-3-0-3-0----------0--7------------3-4-5-|
B|--1--5--------------------------------1-5-----5-5-5-5-5-------|
G|-----------------------------------2--------------------------|
D|---------------------------------2----------------------------|
A|--------------------------------------------------------------|
E|--------------------------------------------------------------|


Outro:
For the final chord, just bend the whammy bar down slowly
E|--5-----7----------------------------------------------------|
B|--5-----5-----8~---------------------------------------------|
G|--5-----5-----9~---------------------------------------------|
D|--7----------------------------------------------------------|
A|--7----------------------------------------------------------|
E|--5----------------------------------------------------------|


Structure:
Here's how the song is put together...

Verse  x4
Chorus
Verse
Solo
Chorus
Verse  x2
Chorus
Outro
Добавлено: 28.05.2012
Другие материалы по этой песне:
  • Аккорды и текст

Страница создана 14.03.2012
http://primanota.ru/desert-sessions/like-a-drug-chords.htm
Привет, Гость.
Предлагаем пройти революционный курс по гитаре.
Подарок от PrimaNota.Ru, забирай!