PrimaNota.ru - самый крупный в мире бесплатный архив песенных текстов, аккордов, табулатур и нот


Desert Sessions - Hogleg - текст песни, таба, видео

Регистрация Запомнить меня
Войти через:  Facebook Google Twitter Vk Yandex Mail.ru

Desert Sessions - Hogleg - текст песни, таба, видео

Печатать
Просмотров: 76
-------------------------------------------------------------------------------
                             Hogleg - Desert Sessions vol 3-4
-------------------------------------------------------------------------------
Tabbed by: bizioforte
E-mail:

I'm not sure about it, but it sound pretty close to it.


Tuning: EADGBe

e|--3--6----6--3--3-----3--3--3----------------------------------------------|
B|--5--5----5--5--4--4--4--5--4--4--4----------------------------------------|
G|-------------------5-----------5--5----------------------------------------|   x2
D|---------------------------------------------------------------------------|
A|---------------------------------------------------------------------------|
E|---------------------------------------------------------------------------|

e|--8---10----10--8---8-----8--8---8-----------------------------------------|
B|--10--11----11--10--9--9--9--10--9--9---9----------------------------------|
G|-----------------------10-----------10--10---------------------------------|   x2
D|---------------------------------------------------------------------------|
A|---------------------------------------------------------------------------|
E|---------------------------------------------------------------------------|


************************************

| /   slide up
| \   slide down
| h   hammer-on
| p   pull-off
| ~   vibrato
| +   harmonic
| x   Mute note
| b   Bend
| pb  Pre-bend
| br  Bend release
| pbr Pre-bend release
| brb Bend release bend

************************************
Добавлено: 28.12.2015
Другие материалы по этой песне:
  • Аккорды и текст

Страница создана 29.06.2012
http://primanota.ru/desert-sessions/hogleg-chords.htm
Привет, Гость.
Предлагаем пройти революционный курс по гитаре.
Подарок от PrimaNota.Ru, забирай!