PrimaNota.ru - самый крупный в мире бесплатный архив песенных текстов, аккордов, табулатур и нот


Desert Sessions - Creosote - таба, видео

Регистрация Запомнить меня
Войти через:  Facebook Google Twitter Vk Yandex Mail.ru

Desert Sessions - Creosote - таба, видео

Печатать
Просмотров: 133
Since there was no tabs of this shit nowhere (u lazy asses)
i had to do it all by myself and the worst is that i'm not sure everything is right.
So if u have something to say about this tab just don't...
Make a better one if u can (i would appreciate.)

Artist: The Desert Sessions
Song: Creosote
Made by: Kingstonager

Standart Tuning (EADGBE)

INTRO:
something something (i don't really get it straight) and then this fast struming
E|----------------------------------------------------------------------------|
B|----------------------------------------------------------------------------|
G|---6--6--6--6--6--6--6--6--6--6--6--6--6--6--6--6--6--6--6--6--6--6--6--6---|
D|---6--6--6--6--6--6--6--6--6--6--6--6--6--6--6--6--6--6--6--6--6--6--6--6---|
A|---4--4--4--4--4--4--4--4--4--4--4--4--4--4--4--4--4--4--4--4--4--4--4--4---|
E|----------------------------------------------------------------------------|

MAIN PART:
Alternate both of these 4 times
E|---------------------------0------------------------------------------------|
B|-------------------0--------------------------------------------------------|
G|---------0h3--------------------3----------1p0----1p0-----------------------|
D|---2------------------------------------------------------2p0---2-----------|
A|----------------------------------------------------------------------------|
E|---0------------------------------------------------------------------------|

E|---------------------------0------------------------------------------------|
B|-------------------0--------------------------------------------------------|
G|---------0h3--------------------3----------1p0----1p0-----3---1p0-----------|
D|---2----------------------------------------------------------------2-------|
A|----------------------------------------------------------------------------|
E|---0------------------------------------------------------------------------|

MAIN PART 2
E|----------------------------------------------------------------------------|
B|----------------------------------------------------------------------------|
G|----------------------------------------------------------------------------|
D|-----2--0--2----3--2---0--2----2p0--2--0----------2-------------------------|
A|----------------------------------------------------------------------------|
E|-------------------------------------------------------3^----0--------------|


OUTRO:
It goes something like that (it's pretty close if not exact, the question is what guitar 
ukulele does what.)
E|----0-0--0---0-0--0---0-0--0---0-0--0---0-0--0---0-0--0---------------------|
B|----4-4--4---4-4--4---4-4--4---4-4--4---4-4--4---4-4--4---------------------|
G|----2-2--5---2-2--5---2-2--5---2-2--5---2-2--5---2-2--5---------------------|
D|----4-4--4---4-4--4---4-4--4---4-4--4---4-4--4---4-4--4---------------------|
A|----------------------------------------------------------------------------|
E|----------------------------------------------------------------------------|

E|----0-0--0---0-0--0---0-0--0---0-0--0---0-0--0---0-0--0---------------------|
B|----7-7--7---7-7--7---7-7--7---7-7--7---7-7--7---7-7--7---------------------|
G|----5-5--5---5-5--5---5-5--5---5-5--5---5-5--5---5-5--5---------------------|
D|----7-7--7---7-7--7---7-7--7---7-7--7---7-7--7---7-7--7---------------------|
A|----------------------------------------------------------------------------|
E|----------------------------------------------------------------------------|

END
E|----------------------------------------------------------------------------|
B|----------------------------------------------------------------------------|
G|---6--6--6--6--6--6--6--6--6--6--6--6--6--6--6--6--6--6--6--6--6-----5------|
D|---6--6--6--6--6--6--6--6--6--6--6--6--6--6--6--6--6--6--6--6--6-----5------|
A|---4--4--4--4--4--4--4--4--4--4--4--4--4--4--4--4--4--4--4--4--4-----3------|
E|----------------------------------------------------------------------------|
Добавлено: 24.03.2012
Другие материалы по этой песне:
  • Аккорды и текст

Страница создана 24.03.2012
http://primanota.ru/desert-sessions/creosote-chords.htm
Привет, Гость.
Предлагаем пройти революционный курс по гитаре.
Подарок от PrimaNota.Ru, забирай!