PrimaNota.ru - самый крупный в мире бесплатный архив песенных текстов, аккордов, табулатур и нот


Desert Sessions - Crawl Home - текст песни, таба, бас-таба, видео

Регистрация Запомнить меня
Войти через:  Facebook Google Twitter Vk Yandex Mail.ru

Desert Sessions - Crawl Home - текст песни, таба, бас-таба, видео

Печатать
Просмотров: 205
Уроки эстрадного вокала в Санкт-Петербурге
Авторы: Joey Castillo, Alain Johannes, Jeordie White, Josh Homme, PJ Harvey

Crawl Home
From the album Desert Sessions 9&10
Josh Homme and friends

Normal Tuning

Verse...

E|---------------------------------|
B|---------------------------------|
G|---------------------------------|
D|---------------------------------|
A|------0-2------------------------|
E|--0-3-----0-3-0-1-1-1-1-1-1-1-0--|

Sometimes it sounds a bit different i think you play the
A string in the 1st fret instead of the second fret, but
i'm not entirely sure.

Chorus...

E|---------------------------------|
B|---------------------------------|
G|---------------------------------|
D|------5-------5-------5-------5--|
A|--7-7---7-5-5---5-4-4---4--------|
E|--------------------------6-6----|

play that 3 times then on fourth time play

E|-----------------------------------|
B|-----------------------------------|
G|-----------------------------------|
D|-----------------------------------|
A|-----------------------------------|
E|--5-5-5-5-5-5-5-5-5-5-5-5-5-5-5-5--|

Outro...

almost the same as the verse but not


E|---------------------------------|
B|---------------------------------|
G|---------------------------------|
D|----------------3-3-3-3-3-3-3----|
A|------0-2-------1-1-1-1-1-1-1----|
E|--0-3-----0-3-0---------------0--|

strike the strings harder on the b flat chord
and then do not play the last open E on the last repetition
Добавлено: 24.02.2012
Другие материалы по этой песне:

Страница создана 24.02.2012
http://primanota.ru/desert-sessions/crawl-home-chords.htm
Привет, Гость.
Предлагаем пройти революционный курс по гитаре.
Подарок от PrimaNota.Ru, забирай!