PrimaNota.ru - самый крупный в мире бесплатный архив песенных текстов, аккордов, табулатур и нот


Desert Sessions - Avon - текст песни, таба, видео

Регистрация Запомнить меня
Войти через:  Facebook Google Twitter Vk Yandex Mail.ru

Desert Sessions - Avon - текст песни, таба, видео

Печатать
Просмотров: 215
Авторы музыки: Josh Homme, Alfredo Hernandez
Авторы текста: Josh Homme, Alfredo Hernandez
Intro:
 D|-----------------||
 A|-----------------||
 F|-----------------||
 C|---------9-------||
 G|-9---9-----------|| (x8)
 D|---7---7---7-7-7-||


Then it shifts into:
 D|-----------------------------------------------------------------------|
 A|-----------------------------------------------------------------------|
 F|-----------------------------------------------------------------------|
 C|-------------9----------------------10----------------------12---------|
 G|-9-----9-----------------9----10----------------10-----12--------------|
 D|----7-----7-----7--7--7-----8-----8-----8--8--8-----10----10--10-10-10-|

 D|------------------------|----------||
 A|------------------------|----------||
 F|------------------------|----------||
 C|-------------12---------|----------||
 G|-12----12---------------|-12-11-10-||
 D|----10----10---10-10-10-|-10--9--8-||
  

Main Verse Riff:
 D|-------------------------------------------------------------------------|
 A|-------------------------------------------------------------------------|
 F|-8--8--8--8--8--8--8--8--9--9--9--9--9--9--9--9--11-11-11-11-11-11-11-11-|
 C|-9--9--9--9--9--9--9--9-10-10-10-10-10-10-10-10--12-12-12-12-12-12-12-12-|
 G|-9--9--9--9--9--9--9--9-10-10-10-10-10-10-10-10--12-12-12-12-12-12-12-12-|
 D|-7--7--7--7--7--7--7--7--8--8--8--8--8--8--8--8--10-10-10-10-10-10-10-10-|

 D|-------------------------||
 A|-------------------------||
 F|-11-11-11-11-11-11-------||
 C|-12-12-12-12-12-12-11-10-||
 G|-12-12-12-12-12-12-11-10-||
 D|-10-10-10-10-10-10--9--8-||


Chorus: (doo-doo-doo-doo-doo-ooh)
 D|-------------------------------------------------------------------------|
 A|-------------------------------------------------------------------------|
 F|-8--8--8--8--8--8--8--8--7--7--7--7--7--7--7--7--11-11-11-11-11-11-11-11-|
 C|-9--9--9--9--9--9--9--9--8--8--8--8--8--8--8--8--12-12-12-12-12-12-12-12-|
 G|-9--9--9--9--9--9--9--9--8--8--8--8--8--8--8--8--12-12-12-12-12-12-12-12-|
 D|-7--7--7--7--7--7--7--7--6--6--6--6--6--6--6--6--10-10-10-10-10-10-10-10-|

 D|------------------------------------------------------------------------|
 A|------------------------------------------------------------------------|
 F|-5--5--5--5--5--5--5--5--4--4--4--4--4--4--4--4--9--9--9--9--9--9--9--9-|
 C|-6--6--6--6--6--6--6--6--5--5--5--5--5--5--5--5--9--9--9--9--9--9--9--9-|
 G|-6--6--6--6--6--6--6--6--5--5--5--5--5--5--5--5--7--7--7--7--7--7--7--7-|
 D|-4--4--4--4--4--4--4--4--3--3--3--3--3--3--3--3--0--0--0--0--0--0--0--0-|

 D|-------------------------------------------------------------------------|
 A|-------------------------------------------------------------------------|
 F|-8--8--8--8--8--8--8--8--9--9--9--9--9--9--9--9--11-11-11-11-11-11-11-11-|
 C|-9--9--9--9--9--9--9--9-10-10-10-10-10-10-10-10--12-12-12-12-12-12-12-12-|
 G|-9--9--9--9--9--9--9--9-10-10-10-10-10-10-10-10--12-12-12-12-12-12-12-12-|
 D|-7--7--7--7--7--7--7--7--8--8--8--8--8--8--8--8--10-10-10-10-10-10-10-10-|

 D|-------------------------||
 A|-------------------------||
 F|-11-11-11-11-11-11-------||
 C|-12-12-12-12-12-12-11-10-||
 G|-12-12-12-12-12-12-11-10-||
 D|-10-10-10-10-10-10--9--8-||


Ending:
 D|-----------------||
 A|-----------------||
 F|-----------------||
 C|---------9-------||
 G|-9---9-----------||
 D|---7---7---7-7-7-||

Добавлено: 03.07.2012
Другие материалы по этой песне:
  • Аккорды и текст

Страница создана 23.03.2012
http://primanota.ru/desert-sessions/avon-chords.htm
Привет, Гость.
Предлагаем пройти революционный курс по гитаре.
Подарок от PrimaNota.Ru, забирай!