PrimaNota.ru - самый крупный в мире бесплатный архив песенных текстов, аккордов, табулатур и нот


Desert Sessions - A1 - таба, видео

Регистрация Запомнить меня
Войти через:  Facebook Google Twitter Vk Yandex Mail.ru

Desert Sessions - A1 - таба, видео

Печатать
Просмотров: 148
Уроки эстрадного вокала в Санкт-Петербурге
Band/Artist: Desert Sessions
Song Title: A#1
Album: Desert Sessions - Volumes 4 & 5
Transcribed by Joel Morrey
Feel Free to E-mail me any feedback to: Apache_rose_peacock_77@hotmail.com

Tuning: Low E down half a step

You should be able to figure out the timings by listening to the song.

Not sure anyone will even use this tab but nevermind. =P

I apologise if this tab is a little hard to follow, but the note variation at the end of 
couple of bars is almost always different, thus why the tab is so long.

| /  slide up
| \  slide down
| h  hammer-on
| p  pull-off
| ~  vibrato
| +  harmonic
| x  Mute note

Intro:


e |-----------------------------------------------------------|
B |-----------------------------------------------------------|
G |---------6-----------------6--------8/11--11~-8--8~--------|
D |---------6--------8--------6-------------------------------|    X   3
A |---------4--------8--------4-------------------------------|
Eb|--0--0------0--0-----0--0-----0--0-------------------------|

e |-----------------------------------------------------------|
B |-----------------------------------------------------------|
G |---------6-----------------6--------6/8--8~-6--6~----------|
D |---------6--------8--------6-------------------------------|    X   1
A |---------4--------8--------4-------------------------------|
Eb|--0--0------0--0-----0--0-----0--0-------------------------|

e |-----------------------------------------------------------|
B |-----------------------------------------------------------|
G |---------6-----------------6--------8/11--11~-8--8~--------|
D |---------6--------8--------6-------------------------------|    X   3
A |---------4--------8--------4-------------------------------|
Eb|--0--0------0--0-----0--0-----0--0-------------------------|

e |-----------------------------------------------------------|
B |-----------------------------------------------------------|
G |---------6--------------6--6--------11/13--13~-11-11~------|
D |---------6--------8-----6--6-------------------------------|    X   1
A |---------4--------8-----4--4-------------------------------|
Eb|--0--0------0--0-----0--------0--0-------------------------|

-Drums Enter

e |-----------------------------------------------------------|
B |-----------------------------------------------------------|
G |---------6-----------------6--------8/11--11~-8--8~--------|
D |---------6--------8--------6-------------------------------|    X   1
A |---------4--------8--------4-------------------------------|
Eb|--0--0------0--0-----0--0-----0--0-------------------------|

e |-----------------------------------------------------------|
B |-----------------------------------------------------------|
G |---------6-----------------6--------8/11--11-13-11~--------|
D |---------6--------8--------6-------------------------------|    X   1
A |---------4--------8--------4-------------------------------|
Eb|--0--0------0--0-----0--0-----0--0-------------------------|

e |-----------------------------------------------------------|
B |-----------------------------------------------------------|
G |---------6-----------------6--------8/11--11~-8--8~--------|
D |---------6--------8--------6-------------------------------|    X   1
A |---------4--------8--------4-------------------------------|
Eb|--0--0------0--0-----0--0-----0--0-------------------------|

e |-----------------------------------------------------------|
B |-----------------------------------------------------------|
G |---------6-----------------6--------6/8--8~-6--6/----------|
D |---------6--------8--------6-------------------------------|    X   1
A |---------4--------8--------4-------------------------------|
Eb|--0--0------0--0-----0--0-----0--0-------------------------|

-Vocals Enter/Verse

e |-----------------------------------------------------------|
B |-----------------------------------------------------------|
G |---------6-----------------6--------8/11--11~-8--8~--------|
D |---------6--------8--------6-------------------------------|    X   1
A |---------4--------8--------4-------------------------------|
Eb|--0--0------0--0-----0--0-----0--0-------------------------|

e |-----------------------------------------------------------|
B |-----------------------------------------------------------|
G |---------6-----------------6--------8/11--11-13-11~--------|
D |---------6--------8--------6-------------------------------|    X   1
A |---------4--------8--------4-------------------------------|
Eb|--0--0------0--0-----0--0-----0--0-------------------------|

e |-----------------------------------------------------------|
B |-----------------------------------------------------------|
G |---------6-----------------6--------8/11--11~-8--8~--------|
D |---------6--------8--------6-------------------------------|    X   1
A |---------4--------8--------4-------------------------------|
Eb|--0--0------0--0-----0--0-----0--0-------------------------|

e |-----------------------------------------------------------|
B |-----------------------------------------------------------|
G |---------6-----------------6--------11/13--13~-11-11~------|
D |---------6--------8--------6-------------------------------|    X   1
A |---------4--------8--------4-------------------------------|
Eb|--0--0------0--0-----0--0-----0--0-------------------------|

e |-----------------------------------------------------------|
B |-----------------------------------------------------------|
G |---------6-----------------6--------6/8--8~-6--6~----------|
D |---------6--------8--------6-------------------------------|    X   3
A |---------4--------8--------4-------------------------------|
Eb|--0--0------0--0-----0--0-----0--0-------------------------|

e |-----------------------------------------------------------|
B |-----------------------------------------------------------|
G |---------6-----------------6--------6/8--8~-6~6~6~6--------|
D |---------6--------8--------6-------------------------------|    X   1
A |---------4--------8--------4-------------------------------|
Eb|--0--0------0--0-----0--0-----0--0-------------------------|

-Chorus

e |-----------------------------------------------------------|
B |-----------------------------------------------------------|
G |-----------------------------------------------------------|
D |--------8---------7--------6--------5-----4-----4b---------|    X   1
A |--------8---------7--------6--------5-----4-----4b---------|
Eb|--0--0------0--0-----0--0-----0--0-----0-----0-------------|

e |-----------------------------------------------------------|
B |-----------------------------------------------------------|
G |-----------------------------------------------------------|
D |--------8---------7--------6--------5-----4-----4b---------|    X   3
A |--------8---------7--------6--------5-----4-----4b---------|
Eb|-----0------0--0-----0--0-----0--0-----0-----0-------------|

e |--------------------------------------------------------------|
B |--------------------------------------------------------------|
G |--------------------------------------------------------------|
D |--------8---------8-------------------------------------------|
A |--------8---------8--------5-5-4-4-3-3-2-2-1-/11--------------|
Eb|--0--0------0--0-----0--0-------------------------------------|
  |                                                                X   4
e |-----------------------------------------------------------|
B |-----------------------------------------------------------|
G |---------------------------11-11-10-10-9-9-8-8-7\----------|
D |-----------------------------------------------------------|
A |-----------------------------------------------------------|
Eb|-----------------------------------------------------------|

-Verse

e |-----------------------------------------------------------|
B |-----------------------------------------------------------|
G |---------6-----------------6--------8/11--11~-8--8~--------|
D |---------6--------8--------6-------------------------------|    X   1
A |---------4--------8--------4-------------------------------|
Eb|--0--0------0--0-----0--0-----0--0-------------------------|

e |-----------------------------------------------------------|
B |-----------------------------------------------------------|
G |---------6-----------------6--------8/11--11-13-11~--------|
D |---------6--------8--------6-------------------------------|    X   1
A |---------4--------8--------4-------------------------------|
Eb|--0--0------0--0-----0--0-----0--0-------------------------|

e |-----------------------------------------------------------|
B |-----------------------------------------------------------|
G |---------6-----------------6--------8/11--11~-8--8~--------|
D |---------6--------8--------6-------------------------------|    X   1
A |---------4--------8--------4-------------------------------|
Eb|--0--0------0--0-----0--0-----0--0-------------------------|

e |-----------------------------------------------------------|
B |-----------------------------------------------------------|
G |---------6-----------------6--------11/13--13~-11-11~------|
D |---------6--------8--------6-------------------------------|    X   1
A |---------4--------8--------4-------------------------------|
Eb|--0--0------0--0-----0--0-----0--0-------------------------|

e |-----------------------------------------------------------|
B |-----------------------------------------------------------|
G |---------6-----------------6--------8/11--11~-8--8~--------|
D |---------6--------8--------6-------------------------------|    X   1
A |---------4--------8--------4-------------------------------|
Eb|--0--0------0--0-----0--0-----0--0-------------------------|

e |-----------------------------------------------------------|
B |-----------------------------------------------------------|
G |---------6-----------------6--------8/11--11-13-11~--------|
D |---------6--------8--------6-------------------------------|    X   1
A |---------4--------8--------4-------------------------------|
Eb|--0--0------0--0-----0--0-----0--0-------------------------|

e |-----------------------------------------------------------|
B |-----------------------------------------------------------|
G |---------6-----------------6--------8/11--11~-8--8~--------|
D |---------6--------8--------6-------------------------------|    X   1
A |---------4--------8--------4-------------------------------|
Eb|--0--0------0--0-----0--0-----0--0-------------------------|

e |-----------------------------------------------------------|
B |-----------------------------------------------------------|
G |---------6-----------------6-------------3-3-6~------------|
D |---------6--------8--------6--------4/6--------------------|    X   1
A |---------4--------8--------4-------------------------------|
Eb|--0--0------0--0-----0--0-----0--0-------------------------|

e |-----------------------------------------------------------|
B |-----------------------------------------------------------|
G |---------6-----------------6--------8/11--11~-8--8~--------|
D |---------6--------8--------6-------------------------------|    X   1
A |---------4--------8--------4-------------------------------|
Eb|--0--0------0--0-----0--0-----0--0-------------------------|

e |-----------------------------------------------------------|
B |-----------------------------------------------------------|
G |---------6-----------------6--------11/13--13~-11-11~------|
D |---------6--------8--------6-------------------------------|    X   1
A |---------4--------8--------4-------------------------------|
Eb|--0--0------0--0-----0--0-----0--0-------------------------|

e |-----------------------------------------------------------|
B |-----------------------------------------------------------|
G |---------6-----------------6--------8/11--11~-8--8~--------|
D |---------6--------8--------6-------------------------------|    X   1
A |---------4--------8--------4-------------------------------|
Eb|--0--0------0--0-----0--0-----0--0-------------------------|

e |-----------------------------------------------------------|
B |-----------------------------------------------------------|
G |---------6-----------------6--------6/8--8~-6~6~6~6--------|
D |---------6--------8--------6-------------------------------|    X   1
A |---------4--------8--------4-------------------------------|
Eb|--0--0------0--0-----0--0-----0--0-------------------------|

-Chorus

e |-----------------------------------------------------------|
B |-----------------------------------------------------------|
G |-----------------------------------------------------------|
D |--------8---------7--------6--------5-----4-----4b---------|    X   1
A |--------8---------7--------6--------5-----4-----4b---------|
Eb|--0--0------0--0-----0--0-----0--0-----0-----0-------------|

e |-----------------------------------------------------------|
B |-----------------------------------------------------------|
G |-----------------------------------------------------------|
D |--------8---------7--------6--------5-----4-----4b---------|    X   3
A |--------8---------7--------6--------5-----4-----4b---------|
Eb|-----0------0--0-----0--0-----0--0-----0-----0-------------|

e |-----------------------------------------------------------|
B |-----------------------------------------------------------|
G |-----------------------------------------------------------|
D |--------8---------8--------7--7--6--6--5-5-4-4-3-----------|
A |--------8---------8--------5--5--4--4--3-3-2-2-1-----------|
Eb|--0--0------0--0-----0--0----------------------------------|
  |                                                                X   7
e |-----------------------------------------------------------|
B |-----------------------------------------------------------|
G |---------------------------11-11-10-10-9-9-8-8-7\----------|
D |-----------------------------------------------------------|
A |-----------------------------------------------------------|
Eb|-----------------------------------------------------------|

e |-----------------------------------------------------------------------|
B |-----------------------------------------------------------------------|
G |-----------------------------------------------------------------------|
D |--------8---------8--------7--7--6--6--5-5-4-4-3--3-3-4-4-5-5-6--6--7--|
A |--------8---------8--------7--7--6--6--5-5-4-4-3--3-3-4-4-5-5-6--6--7--|
Eb|--0--0------0--0-----0--0----------------------------------------------|
  |                                                                     X   1
e |-----------------------------------------------------------------------|
B |-----------------------------------------------------------------------|
G |---------------------------11-11-10-10-9-9-8-8-7--7-7-8-8-9-9-10-10-11\|
D |-----------------------------------------------------------------------|
A |-----------------------------------------------------------------------|
Eb|-----------------------------------------------------------------------|

e |-----------|
B |-----------|
G |--8--8-----|
D |--8--8-----|
A |--6--6-----|
Eb|-----------|
  |                   X   1
e |-----------|
B |--16-16\---|
G |-----------|
D |-----------|
A |-----------|
Eb|-----------|

End.
Добавлено: 25.06.2012
Другие материалы по этой песне:

Страница создана 25.06.2012
http://primanota.ru/desert-sessions/a1-chords.htm
Привет, Гость.
Предлагаем пройти революционный курс по гитаре.
Подарок от PrimaNota.Ru, забирай!