PrimaNota.ru - самый крупный в мире бесплатный архив песенных текстов, аккордов, табулатур и нот


Descendents - Mass Nerder - текст песни, таба, видео

Регистрация Запомнить меня
Войти через:  Facebook Google Twitter Vk Yandex Mail.ru

Descendents - Mass Nerder - текст песни, таба, видео

Печатать
Просмотров: 107
Авторы: Milo Aukerman

-------------------------------------------------------------------------------
Mass Nerder - The Descendents
Cool To Be You
-------------------------------------------------------------------------------
Tabbed by: axeslash
Email: holmzito@yahoo.com

Tuning: Standard

e|-----------------------------------------------|
B|-----------------------------------------------|
G|--------------------------------7----10--5-5-5-|
D|-5--5--5--7------------5--5--5--7----10--5-5-5-|
A|-5--5--5--7------------5--5--5--5-----8--3-3-3-|
E|-3--3--3--5------------3--3--3-----------------|

e|---------------------------------|     e|------------------------|
B|---------------------------------|     B|------------------------|
G|-7-7-7-7-7-7-7-7-10--5-5-5-5-5-5-|     G|-7--7--7--7--10--5--5-5-|
D|-7-7-7-7-7-7-7-7-10--5-5-5-5-5-5-|     D|-7--7--7--7--10--5--5-5-|
A|-5-5-5-5-5-5-5-5--8--3-3-3-3-3-3-|     A|-5--5--5--5---8--3--3-3-|
E|---------------------------------| x3  E|[X--X--X--X]------------| x4
  
e|-------------------------------------------------------|
B|-------------------------------------------------------|
G|-----------------5--5-5--5-5---------------------------|
D|-7-7-7-7-7-7-7-7-5--5-5--5-5--3-3-3-3-3-3-3-3-5--5--5--|
A|-7-7-7-7-7-7-7-7-3--3-3--3-3--3-3-3-3-3-3-3-3-5--5--5--|
E|-5-5-5-5-5-5-5-5--------------1-1-1-1-1-1-1-1-3--3--3--|

e|-------------------------------------------------------|
B|-------------------------------------------------------|
G|-----------------5--5-5--5-5---------------------------|
D|-7-7-7-7-7-7-7-7-5--5-5--5-5--3-3-3-3-3-3-3-3-5--------|
A|-7-7-7-7-7-7-7-7-3--3-3--3-3--3-3-3-3-3-3-3-3-5--------|
E|-5-5-5-5-5-5-5-5--------------1-1-1-1-1-1-1-1-3--------|

e|--------------------------------|     e|-------------------------|
B|--------------------------------|     B|-------------------------|
G|-7--7-7-7-7-7-7-10--5-5-5-5-5-5-|     G|-7--7--7--7--5-5-5-5-5-5-|
D|-7--7-7-7-7-7-7-10--5-5-5-5-5-5-|     D|-7--7--7--7--5-5-5-5-5-5-|
A|-5--5-5-5-5-5-5--8--3-3-3-3-3-3-|     A|-5--5--5--5--3-3-3-3-3-3-|
E|[X-X-X-X-X-X-X-X]---------------| x4  E|-------------------------| x4

e|-------------------------------------------------------|
B|-------------------------------------------------------|
G|-----------------5--5-5--5-5---------------------------|
D|-7-7-7-7-7-7-7-7-5--5-5--5-5--3-3-3-3-3-3-3-3-5--5--5--|
A|-7-7-7-7-7-7-7-7-3--3-3--3-3--3-3-3-3-3-3-3-3-5--5--5--|
E|-5-5-5-5-5-5-5-5--------------1-1-1-1-1-1-1-1-3--3--3--| x4

e|--------------------------|    e|-------------|
B|--------------------------|    B|-------------|
G|-9--9--9--9--9--7-7--7-7--|    G|-9--9--9--9/-|
D|-9--9--9--9--9--7-7--7-7--|    D|-9--9--9--9/-|
A|-7--7--7--7--7--5-5--5-5--|    A|-7--7--7--7/-|
E|[X--X--X--X--X]-----------| x2 E|[X--X--X]----|

e|-----------------------------------13--13--13-13-13-15-15-17^-17r-15--|
B|-10--10--10-10-10-13--13-13--13-13-13--13--13-13-13-15-15-17^-17r-15--|
G|--9---9---9--9--9-12--12-12--12-12------------------------------------|
D|----------------------------------------------------------------------|
A|----------------------------------------------------------------------|
E|----------------------------------------------------------------------|

e|-----------------------------------13--13--13-13-13-15--15-15--|
B|-10--10--10-10-10-13--13-13--13-13-13--13--13-13-13-15--15-15--|
G|--9---9---9--9--9-12--12-12--12-12-----------------------------|
D|---------------------------------------------------------------|
A|---------------------------------------------------------------|
E|---------------------------------------------------------------|

e|--------------------------------------------------------------------------------------|
B|--------------------------------------------------------------------------------------|
G|-7----10--5--5-5--7----10--5--5-5--7----10--5--5-5--7----10--5--5-5--7----------------|
D|-7----10--5--5-5--7----10--5--5-5--7----10--5--5-5--7----10--5--5-5--7----------------|
A|-5-----8--3--3-3--5-----8--3--3-3--5-----8--3--3-3--5-----8--3--3-3--5----------------|
E|--------------------------------------------------------------------------------------|

e|------------------------------------------------|
B|------------------------------------------------|
G|-7--7--7--7--7--7--7--7--7--7--7--7--10-5--5-5--|
D|-7--7--7--7--7--7--7--7--7--7--7--7--10-5--5-5--|
A|-5--5--5--5--5--5--5--5--5--5--5--5---8-3--3-3--|
E|[X--X--X--X--X--X--X--X--X]---------------------|

e|---------------------------|    e|-----------------------------------------------------|
B|---------------------------|    B|-----------------------------------------------------|
G|-7--7--7--7--10--5-5--5-5--|    G|-7--7--7--7--10--5-5--5-5--7--7--7--7--10--5-5--5-5--|
D|-7--7--7--7--10--5-5--5-5--|    D|-7--7--7--7--10--5-5--5-5--7--7--7--7--10--5-5--5-5--|
A|-5--5--5--5---8--3-3--3-3--|    A|-5--5--5--5---8--3-3--3-3--5--5--5--5---8--3-3--3-3--|
E|[X--X--X--X---X--X-X--X-X]-| x3 E|-----------------------------------------------------|

e|-------------------------|     e|-----------------------|    e|-----------------------|
B|-------------------------|     B|--------------------8--|    B|-----------------------|
G|-7--7--7--7--10--5-5--5--|     G|-7--7--7--7--10--5--7--|    G|-7--7--7--7--10--5-5-5-|
D|-7--7--7--7--10--5-5--5--|     D|-7--7--7--7--10--5--5--|    D|-7--7--7--7--10--5-5-5-|
A|-5--5--5--5---8--3-3--3--|     A|-5--5--5--5---8--3-----|    A|-5--5--5--5---8--3-3-3-|
E|-------------------------| x4  E|-----------------------| x3 E|-----------------------|

e|------------------|  e|------------------------|     e|-------------------------|
B|------------------|  B|------------------------|     B|-------------------------|
G|-9-------9--------|  G|-9--9--9--9--9--7-7--7--|     G|-9--9--9--9--9--9--9--9--|
D|-9-------9--------|  D|-9--9--9--9--9--7-7--7--|     D|-9--9--9--9--9--9--9--9--|
A|-7-------7--------|  A|-7--7--7--7--7--5-5--5--|     A|-7--7--7--7--7--7--7--7--|
E|------------------|  E|[X--X--X--X--X]---------| x3  E|[X--X--X--X--X--X--X--X]-|

e|------------------------|     e|-------------------------|
B|------------------------|     B|-------------------------|
G|-9--9--9--9--9--7-7--7--|     G|-9--9--9--9--9--9--9--9--|
D|-9--9--9--9--9--7-7--7--|     D|-9--9--9--9--9--9--9--9--|
A|-7--7--7--7--7--5-5--5--|     A|-7--7--7--7--7--7--7--7--|
E|[X--X--X--X--X]---------| x3  E|[X--X--X--X--X--X--X--X]-|

e|------------------------|     e|-------------------------|
B|------------------------|     B|-------------------------|
G|-9--9--9--9--9--7-7--7--|     G|-9--9--9--9--9--9--9--9--|
D|-9--9--9--9--9--7-7--7--|     D|-9--9--9--9--9--9--9--9--|
A|-7--7--7--7--7--5-5--5--|     A|-7--7--7--7--7--7--7--7--|
E|[X--X--X--X--X]---------| x3  E|[X--X--X--X--X--X--X--X]-|

e|------------------------|     e|----------------------------------|
B|------------------------|     B|----------------------------------|
G|-9--9--9--9--9--7-7--7--|     G|-9--9--9--9--9--9--9--9--9--------|
D|-9--9--9--9--9--7-7--7--|     D|-9--9--9--9--9--9--9--9--9--------|
A|-7--7--7--7--7--5-5--5--|     A|-7--7--7--7--7--7--7--7--7--------|
E|[X--X--X--X--X]---------| x3  E|[X--X--X--X--X--X--X--X]----------|

e|-----------------------------------------------------------------|
B|-----------------------------------------------------------------|
G|-9-9-9-9-9-9-9-9-8-8-8-8-8-8-8-8-7-7-7-7-7-7-7-7-6-6-6-6-6-6-6-6-|
D|-9-9-9-9-9-9-9-9-8-8-8-8-8-8-8-8-7-7-7-7-7-7-7-7-6-6-6-6-6-6-6-6-|
A|-7-7-7-7-7-7-7-7-6-6-6-6-6-6-6-6-5-5-5-5-5-5-5-5-4-4-4-4-4-4-4-4-|
E|-----------------------------------------------------------------| x6

e|-----------------------------------------------------------------|
B|-----------------------------------------------------------------|
G|-9-9-9-9-9-9-9-9-10-10-10-10-10-10-10-10-11-11-11-11-11-11-11-11-|
D|-9-9-9-9-9-9-9-9-10-10-10-10-10-10-10-10-11-11-11-11-11-11-11-11-|
A|-7-7-7-7-7-7-7-7--8--8--8--8--8--8--8--8--9--9--9--9--9--9--9--9-|
E|-----------------------------------------------------------------|

e|-------------------------------------------------------------------------|
B|-------------------------------------------------------------------------|
G|-12-12-12-12-12-12-12-12-13-13-13-13-13-13-13-13-14-14-14-14-14-14-14-14-|
D|-12-12-12-12-12-12-12-12-13-13-13-13-13-13-13-13-14-14-14-14-14-14-14-14-|
A|-10-10-10-10-10-10-10-10-11-11-11-11-11-11-11-11-12-12-12-12-12-12-12-12-|
E|-------------------------------------------------------------------------|

e|-------------------------------------------------------------------------|
B|-------------------------------------------------------------------------|
G|-15-15-15-15-15-15-15-15-16-16-16-16-16-16-16-16-------------------------|
D|-15-15-15-15-15-15-15-15-16-16-16-16-16-16-16-16-------------------------|
A|-13-13-13-13-13-13-13-13-14-14-14-14-14-14-14-14-15-15-15-15-15-15-15-15-|
E|-------------------------------------------------------------------------|

e|-------------------------------------------------------------------------|
B|-------------------------------------------------------------------------|
G|-------------------------------------------------------------------------|
D|-------------------------------------------------------------------------|
A|-16-16-16-16-16-16-16-16-17-17-17-17-17-17-17-17-18-18-18-18-18-18-18-18-|
E|-------------------------------------------------------------------------|

e|------------------------------------------------0--------|
B|------------------------------------------------0--------|
G|------------------------------------------------0--------|
D|------------------------------------------------0--------|
A|-18--\17\16\15--\14\13\12--\11\10\9\8-----------0--------|
E|---------------------------------------0-----------------|


| /  slide up
| \  slide down
| h  hammer-on
| p  pull-off
| ~  vibrato
| +  harmonic
| x  Mute note
===============================================================================
Добавлено: 15.11.2013
Другие материалы по этой песне:
  • Аккорды и текст

Страница создана 16.05.2012
http://primanota.ru/descendents/mass-nerder-chords.htm
Привет, Гость.
Предлагаем пройти революционный курс по гитаре.
Подарок от PrimaNota.Ru, забирай!