PrimaNota.ru - самый крупный в мире бесплатный архив песенных текстов, аккордов, табулатур и нот


Descendents - Marraige - таба, видео

Регистрация Запомнить меня
Войти через:  Facebook Google Twitter Vk Yandex Mail.ru

Descendents - Marraige - таба, видео

Печатать
Просмотров: 85
"Marraige"
by descendents
from the album Milo Goes To College

* palm mute


Intro

e----------------------------------------------|
B----------------------------------------------|
G----------------------------------------------|
D-9----7----7----5----9----7----7----55555555--|
A-9----7----7----5----9----7----7----55555555--|
E-7----5----5----3----7----5----5----33333333--| let chords ring


Riff 1
e-------------------------------------|
B-------------------------------------|
G-------------------9999999999999999--|
D-99999999-77777777-9999999999999999--|
A-99999999-77777777-7777777777777777--|
E-77777777-55555555-------------------|

Riff 2
e-----------------------------------|
B-----------------------------------|
G-----------------------------------|
D-9999999-7777777-7777777-55555555--|
A-9999999-7777777-7777777-55555555--|
E-7777777-5555555-5555555-33333333--|
   ******  ******   ******  ******

Riff 3 ("I don't wanna have sex with you...")

e-----------------      e----------------------------------------|
B-----------------      B----------------------------------------|
G-----------------      G------------------------------------9-9-|
D-6------9x9xx9x9-      D-6666666666666666-77777777-99999999-9-9-|
A-6------9x9xx9x9-      A-6666666666666666-77777777-99999999-7-7-|
E-4------7x7xx7x7- X2   E-4444444444444444-55555555-77777777-----|


Riff 4 ("do you know?... do you know?")
e----------------------------------------------------------------------|
B----------------------------------------------------------------------|
G------------------77777777777777777------------------111111111111111--|
D-9999999999999999-77777777777777777-9999999999999999-111111111111111--|
A-9999999999999999-55555555555555555-9999999999999999-999999999999999--|
E-7777777777777777-------------------7777777777777777------------------|
NOTE each 1 counts for an 11


Ending
e-------------------|
B-------------------|
G-----------------9-|
D-9999999-7---7-7-9-|
A-9999999-7---7-7-7-|
E-7777777-5---5-5---| let all chords ring
Добавлено: 14.09.2013
Другие материалы по этой песне:
  • Аккорды и текст

Страница создана 14.09.2013
http://primanota.ru/descendents/marraige-chords.htm
Привет, Гость.
Предлагаем пройти революционный курс по гитаре.
Подарок от PrimaNota.Ru, забирай!