PrimaNota.ru - самый крупный в мире бесплатный архив песенных текстов, аккордов, табулатур и нот


Descendents - I Quit - текст песни, бас-таба, видео

Регистрация Запомнить меня
Войти через:  Facebook Google Twitter Vk Yandex Mail.ru

Descendents - I Quit - текст песни, бас-таба, видео

Печатать
Просмотров: 92
-------------------------------------------------------------------------------
                             I QUIT - Descendents
-------------------------------------------------------------------------------
Tabbed by: sillypenta
E-mail: sillypenta@gmail.com

Tuning: Standard

Intro. Pluck G9 as your sliding finger reaches A7 and let them both ring.
G|------------------------------9--|
D|---------------------------------|
A|----------------------5---3-2/7--|
E|-2222222222222222-0-5---3--------|

Pre-verse 1
G|---------------------------------|
D|---------------------------------|
A|------------------------------474|
E|-----------------------------7---|

G|---------------------------------|
D|---------------------------------|
A|7--------------------------------|
E|6----------------------------12\0|

Verse 1
Music was my hobby...
G|---------------------------------|
D|---------------------------------|
A|--------7-744-4-4--44774------474|
E|0044774------7-7-55-----7-7777---|

Now that it's become a job...
G|---------------------------------|
D|---------------------------------|
A|--------7-744-4-4--44774-------0-|
E|0044774------7-7-55-----7-7777---|

No amount of money...
G|---------------------------------|
D|55555420420-20-------------------|
A|-----------4--42555555-05-5555555|
E|---------------------------------|

And who cares what you're making...
G|---------------------------------|
D|55555420420-20-------------------|
A|-----------4--420000000/9-9999999|
E|---------------------------------|

Chorus
Sick all the time...
G|-------------------------------|
D|---------2/4\2-----------------|
A|--2255244-----5-5555502-22222-0|
E|33-----------------------------|

Got better things to do...
G|-------------------------------|
D|-5555550----2------------------|
A|--------0-04-45-5555502-22222-0|
E|-------------------------------|

I quit - I quit
G|---------------------------|
D|---------------------------|
A|5-5555502-22222-0-5--5-5-5-|
E|---------------------------|

Pre-verse 2
G|---------------------------------|
D|---------------------------------|
A|--------7-744-4-4--44774------474|
E|0044774------7-7-55-----7-7777---|

G|------------------------------------|
D|------------------------------------|
A|--------7-744-4-4--44774------------|
E|0044774------7-7-55-----7-77777/19\0|

Repeat verse
Repeat chorus

Bridge
G|---------------------------------|
D|---------------------------------|
A|-------------------------5---3-2-|
E|-22222222222222/14\2-0-5---3-----|

I quit
G|------------------------------|
D|------------------------------|
A|----------------------5---3-2-|
E|-2222222222222222-0-5---3-----|

I quit
G|------------------------------|
D|------------------------------|
A|----------------------5---3-2-|
E|-2222222222222222-0-5---3-----|

QUIT! (Listen closely to get the timing of the high picthed part)
G|---------------------------------------14-|
D|------------------11-11-11-11-12-14-11----|
A|------------------------------------------|
E|-22222222222222---------------------------|

Pre-verse 3
G|---------------------------------|
D|---------------------------------|
A|7-----------------------------474|
E|-----------------------------7---|

G|---------------------------------|
D|---------------------------------|
A|7--------------------------------|
E|6----------------------------12\0|

Repeat verse
Repeat chorus

Ending
And what did ya think...
G|---------------------------------|
D|---------------------------------|
A|-------------------------5---3-2-|
E|-22222222222222/14\2-0-5---3-----|

Ya know, playing the pixie...
G|------------------------------|
D|------------------------------|
A|----------------------5---3-2-|
E|-2222222222222222-0-5---3-----|

Gimme a break...
G|------------------------------|
D|------------------------------|
A|----------------------5---3-2-|
E|-2222222222222222-0-5---3-----|

But you know what...
G|----------------------------------------|
D|----------------------------------------|
A|---------------------------55----3-2----|
E|-22222222222222/14\2-00-55----33-----02-|


===============================================================================
Добавлено: 16.05.2016
Другие материалы по этой песне:
  • Аккорды и текст

Страница создана 01.06.2012
http://primanota.ru/descendents/i-quit-chords.htm
Привет, Гость.
Предлагаем пройти революционный курс по гитаре.
Подарок от PrimaNota.Ru, забирай!