PrimaNota.ru - самый крупный в мире бесплатный архив песенных текстов, аккордов, табулатур и нот


Descendents - Coolidge - аккорды и текст, таба, бас-таба, видео

Регистрация Запомнить меня
Войти через:  Facebook Google Twitter Vk Yandex Mail.ru

Descendents - Coolidge - аккорды и текст, таба, бас-таба, видео

Печатать
Просмотров: 207
Авторы музыки: Karl Alvarez
Авторы текста: Karl Alvarez
Coolidge
Descendents
I know my last tab was completely off, so I'm gonna make one last tab
of this song 'cause I'm sure it's 100% correct this time... I think.

I didn't put in the solo this time ... Just look at the other one.

Intro: (I found this way easier)

E|-----------------------------------------------------------------|
B|-----------------------------------------------------------------|
G|-----------------------------------------------------------------|
D|-------5--------------5--------------5--------------5------------|
A|--0--0---0-4-5-4-0--0---0-4-5-4-0--0---0-4-5-4-0--0---0-4-5-4-0--|
E|-----------------------------------------------------------------|

E|---------------------------------------------------------------|
B|---------------------------------------------------------------|
G|---------------------------------------------------------------|
D|-------5--------------5--------------5--------------5----------|
A|--0--0---0-4-5-4-0--0---0-4-5-4-0--0---0-4-5-4-0--0---0-4-5-5--|
E|---------------------------------------------------------------|

Verse:

(I'm not a cool guy...)
E|------------------------------------------------------------|
B|------------------------------------------------------------|
G|--7xxxxx7x7777--4xxxxx4x4444--555555555555------44--55------|
D|--7xxxxx7x7777--4xxxxx4x4444--555555555555--55--44--55--55--|
A|--5xxxxx5x5555--2xxxxx2x2222--333333333333--55--22--33--55--|
E|--------------------------------------------33----------33--|

(The feelings...)
E|------------------------------------|
B|------------------------------------|
G|--777777777777--55555555------------|
D|--777777777777--55555555--55555555--|
A|--555555555555--33333333--55555555--|
E|--------------------------33333333--|

(What was I thinking of...)
E|------------------------------------------|
B|------------------------------------------|
G|--44444444------------44444444------------|
D|--44444444--2xxx2xxx--44444444--2xxx2xxx--|
A|--22222222--2xxx2xxx--22222222--2xxx2xxx--|
E|------------0xxx0xxx------------0xxx0xxx--|

(I looked at my reflection...) - (2x)
E|------------------------------------------|
B|------------------------------------------|
G|--55555555--77777777--44444444--55555555--|
D|--55555555--77777777--44444444--55555555--|
A|--33333333--55555555--22222222--33333333--|
E|------------------------------------------|

Repeat everything for Verse 2
Play intro during the solo

Post solo:

E|------------------|
B|------------------|
G|------------------|
D|--77--77--77--77--|
A|--77--77--77--77--|
E|--55--55--55--55--|

(Ah...) - Palm mute
E|----------------|
B|----------------|
G|--xxxxxxxxxxxx--|
D|--777777777777--|
A|--777777777777--|
E|--555555555555--|

Verse 3: %=Pause

(I'm not a cool guy...)
E|--------------------------------------------------------------------|
B|--------------------------------------------------------------------|
G|--777777777777--%%--444444444444--%%--555555555555------44--55------|
D|--777777777777--%%--444444444444--%%--555555555555--55--44--55--55--|
A|--555555555555--%%--222222222222--%%--333333333333--55--22--33--55--|
E|----------------------------------------------------33----------33--|

(I was my worst enemy...)
E|------------------------------------|
B|------------------------------------|
G|--777777777777--55555555------------|
D|--777777777777--55555555--55555555--|
A|--555555555555--33333333--55555555--|
E|--------------------------33333333--|

(What was I thinking of...)
E|------------------------------------------|
B|------------------------------------------|
G|--44444444------------44444444------------|
D|--44444444--2xxx2xxx--44444444--2xxx2xxx--|
A|--22222222--2xxx2xxx--22222222--2xxx2xxx--|
E|------------0xxx0xxx------------0xxx0xxx--|

(I looked up one day...) - (4x)
E|------------------------------------------|
B|------------------------------------------|
G|--55555555--77777777--44444444--55555555--|
D|--55555555--77777777--44444444--55555555--|
A|--33333333--55555555--22222222--33333333--|
E|------------------------------------------|

Ending:

E|---------------------|
B|---------------------|
G|---------------------|
D|--77xxx77xxx77xxx77--|
A|--77xxx77xxx77xxx77--|
E|--55xxx55xxx55xxx55--|

E|-------------------|
B|-------------------|
G|--xxxxxxxxxxxx--7--|
D|--777777777777--7--|
A|--777777777777--5--|
E|--555555555555-----|

There you go... and it's 100%!
Добавлено: 30.03.2012
Другие материалы по этой песне:
  • Аккорды и текст

Страница создана 30.03.2012
http://primanota.ru/descendents/coolidge-chords.htm
Привет, Гость.
Предлагаем пройти революционный курс по гитаре.
Подарок от PrimaNota.Ru, забирай!