PrimaNota.ru - самый крупный в мире бесплатный архив песенных текстов, аккордов, табулатур и нот


Descendents - Christmas Vacation - текст песни, таба, видео

Регистрация Запомнить меня
Войти через:  Facebook Google Twitter Vk Yandex Mail.ru

Descendents - Christmas Vacation - текст песни, таба, видео

Печатать
Просмотров: 132
Авторы: Bill Stevenson, Milo Aukerman

-----------------------------------------------------------------------------
                        Christmas Vacation - Descendents
-----------------------------------------------------------------------------

Tabbed by: Drappetite

E-mail: Drappetite@aim.com

Tuning: Standard

Here it is.  Hit me up if you think I totally butchered it.

Intro:
e|---3-3--2-2--2--3-------3-3--2-2--2--3------------------------------------|
B|---3-3--3-3--2--3-------3-3--3-3--2--3------------------------------------|
G|---2-2--2-2--2--3--9----2-2--2-2--2--3------------------------------------|
D|---0-0--0-0--4--5--9----0-0--0-0--4--5--2~--------------------------------|
A|-------------4--5--7--------------4--5--2~--------------------------------|
E|-------------2--3-----------------2--3--0~--------------------------------|

Verse:
e|--------------------------------------------------------------------------|
B|--------------------------------------------------------------------------|
G|-----------4-----------4--------------------------------------------------|
D|--4--5--4--4--4--5--4--4--------------------------------------------------|
A|--4--5--4--2--4--5--4--2--------------------------------------------------|
E|--2--3--2-----2--3--2-----------------------------------------------------|   
    Pm pm pm    pm pm pm

Chorus:
                ...Christmas Vacation 
e|--------|      |--------||--------------|
B|--7-----|      |--------||--------------|
G|--7-----| X4   |--------||--7--------9--| X2
D|--7--5--|      |--4--5--||--7--4--5--9--|
A|--5--5--|      |--4--5--||--5--4--5--7--|
E|-----3--|      |--2--3--||-----2--3-----|
                    Pm Pm

After First Chorus
e|-----|
B|-----|
G|--9~-|
D|--9~-|
A|--7~-|
E|-----|

Verse:
e|--------------------------------------------------------------------------|
B|--------------------------------------------------------------------------|
G|-----------4-----------4--------------------------------------------------|
D|--4--5--4--4--4--5--4--4--------------------------------------------------|
A|--4--5--4--2--4--5--4--2--------------------------------------------------|
E|--2--3--2-----2--3--2-----------------------------------------------------|
   Pm  pm pm    pm pm pm


Chorus:
                ...Christmas Vacation 
e|--------|      |--------||--------------|
B|--7-----|      |--------||--------------|
G|--7-----| X4   |--------||--7--------9--| X2
D|--7--5--|      |--4--5--||--7--4--5--9--|
A|--5--5--|      |--4--5--||--5--4--5--7--|
E|-----3--|      |--2--3--||-----2--3-----|
                    Pm Pm

e|-----|
B|-----|
G|--9~-| X3
D|--9~-|
A|--7~-|
E|-----|

Last Verse:
e|--------------------------------------------------------------------------|
B|--------------------------------------------------------------------------|
G|-----------4-----------4-----------4------------4-------------------------|
D|--4--5--4--4--4--5--4--4--4--5--4--4---4--5--4--4-------------------------|
A|--4--5--4--2--4--5--4--2--4--5--4--2---4--5--4--2-------------------------|
E|--2--3--2-----2--3--2-----2--3--2------2--3--2----------------------------|
   Pm pm pm pm pm pm pm pm gradually less pm to open


Last Chorus:
                 ...Christmas Vacation 
e|--------|      |--------||--------------|
B|--7-----|      |--------||--------------|
G|--7-----| X4   |--------||--7--------9--| X4
D|--7--5--|      |--4--5--||--7--4--5--9--|
A|--5--5--|      |--4--5--||--5--4--5--7--|
E|-----3--|      |--2--3--||-----2--3-----|
                    Pm Pm
End:
e|-----|
B|-----|
G|--9~-|
D|--9~-|
A|--7~-|
E|-----|

************************************

| /   slide up
| \   slide down
| h   hammer-on
| p   pull-off
| ~   vibrato
| +   harmonic
| x   Mute note
| b   Bend
| pb  Pre-bend
| br  Bend release
| pbr Pre-bend release
| brb Bend release bend

************************************
Добавлено: 04.11.2013
Другие материалы по этой песне:
  • Аккорды и текст

Страница создана 15.06.2012
http://primanota.ru/descendents/christmas-vacation-chords.htm
Привет, Гость.
Предлагаем пройти революционный курс по гитаре.
Подарок от PrimaNota.Ru, забирай!