PrimaNota.ru - самый крупный в мире бесплатный архив песенных текстов, аккордов, табулатур и нот


Descendents - Bikeage - аккорды и текст, таба, драм-таба, видео

Регистрация Запомнить меня
Войти через:  Facebook Google Twitter Vk Yandex Mail.ru

Descendents - Bikeage - аккорды и текст, таба, драм-таба, видео

Печатать
Просмотров: 179
Авторы: Bill Stevenson

Bikeage
Descendents
                                  BIKEAGE

Descendents

by: carey overflow [overflow@itol.com]

INTRO:
G-----12-14-12------12-14-12--------------------
D--14-----------14-----------14-12-10-10--------
A-----------------------------------------------
E-----------------------------------------------

G-----------------------12-14-12----12-14-12--------------
D--10-10---10-10-12--14----------14----------14-12-10-10--
A---------------------------------------------------------
E---------------------------------------------------------

VERSE:
G-------------------------------------------------------
D-----3--7--5-----3-----5-----3--7--5-----3-----3--5----
A--3-----------3-----5-----3-----------3-----5----------
E-------------------------------------------------------

CHORUS:
G---------------------------------------------------
D-----3--2---3--2------5-7-5----5-7-5---------------
A--3-------3---------7--------5-------7--5--3-3-----
E---------------------------------------------------

G----------------------------------------
D----------5-7-5---5-7-5-----------------
A--3-3-5-7-------7--------7-5-3-3--------
E----------------------------------------

2ND VERSE:
G---------------------------------------------------------
D--------3--5--------3--5--------3--5------5-----3--5-----
A--3--5--------3--5--------3--5---------3-----5-----------
E---------------------------------------------------------

Добавлено: 25.04.2012
Другие материалы по этой песне:
  • Аккорды и текст

Страница создана 29.02.2012
http://primanota.ru/descendents/bikeage-chords.htm
Привет, Гость.
Предлагаем пройти революционный курс по гитаре.
Подарок от PrimaNota.Ru, забирай!